Lost Children - Ettore Che Rubava Le Sere Chords & Tabs

 

Ettore Che Rubava Le Sere Chords & Tabs

Lost Children Chords & Tabs

Version: 1 Type: Bass Tab 0 ratings
1 star 2 stars 3 stars 4 stars 5 stars
comments

Ettore Che Rubava Le Sere Bass Tab

   
ETTORE CHE RUBAVA LE SERE
Lost Children

www.lostchildren.supereva.it

Verse A  A#
Chorus  A# C

(x2 guitar & drum solo)


(Intro) (x 2)

|----------------------------------|
|----------------------------------|
|-/0-------------13/15-------------|
|----------------------------------|

(Verse) (x 3)

|----------------------------------|
|----------------------------------|
|-/0-------------13/15-------------|
|----------------------------------|

Pre Chorus
|------------------------------------------|
|------------------------------------------|
|-/0-------------13-13---13-13---15-13-----|
|------------------------------------------|
[ Tab from: http://www.guitartabs.cc/tabs/l/lost_children/ettore_che_rubava_le_sere_btab.html ]
Chorus 
|----------------------------------------|-------------------------------------------|
|----------------------------------------|-------------------------------------------|
|-13-0-0-13-0-0-13-0--15-0-0-15-0-0-15-0-|-13-0-0-13-0-0-13-0--15-15---15-15---/17---|
|----------------------------------------|-------------------------------------------|

|-----------------------------|------------------------------------|
|-----------------------------|------------------------------------|
|-1-00-1-00-1-0-3-00-3-00-3-0-|-1-00-1-00-1-0-3-00-3-00-3-0-----/15|
|-----------------------------|------------------------------------|


(Verse) (x 3)

Pre Chorus

Chorus

Outro (untill the end)

|-----------------------------|------------------------------|
|-----------------------------|------------------------------|
|-1-00-1-00-1-0-3-00-3-00-3-0-|-1-00-1-00-1-0-3-00-3-00-3-0--|
|-----------------------------|------------------------------|
Comments