Lost Cause - Wannabe Chords & Tabs

 

Wannabe Chords & Tabs

Lost Cause Chords & Tabs

Version: 1 Type: Bass Tab 0 ratings
1 star 2 stars 3 stars 4 stars 5 stars
comments

Wannabe Bass Tab

          Lost Cause
          "Wannabe"
          
          Chorus
          ------------|-----------|-----------|-----------||
          ------------|-----------|-----------|-----------||
          ------------|-----------|-----------|-----------||
          --0-0-0-0-1-|-0-0-0-0-1-|-0-0-0-0-1-|-0-0-0-0-1-||
          
          -------------|------------|------------|------------||
          --00-33-44-22|-00-33-44-22|-00-33-44-22|-00-33-44-22||
          -------------|------------|------------|------------||
          -------------|------------|------------|------------||
          Chorus
          ------------|-----------|-----------|-----------||
          ------------|-----------|-----------|-----------||
          ------------|-----------|-----------|-----------||
          --0-0-0-0-1-|-0-0-0-0-1-|-0-0-0-0-1-|-0-0-0-0-1-||
          
          -------------|------------|------------|------------||
          --00-88-99-77|-00-88-99-77|-00-88-99-77|-00-88-99-77||
          -------------|------------|------------|------------||
          -------------|------------|------------|------------||
          
          Chorus
          ------------|-----------|-----------|-----------||
          ------------|-----------|-----------|-----------||
          ------------|-----------|-----------|-----------||
          --0-0-0-0-1-|-0-0-0-0-1-|-0-0-0-0-1-|-0-0-0-0-1-||
          
          -------------|------------|------------|------------||
          --00-12-13-11|-00-12-13-11|-00-12-13-11|-00-12-13-11||
          -------------|------------|------------|------------||
          -------------|------------|------------|------------||
          
          Chourus to fade out
          
          ------------|-----------|-----------|-----------||
          ------------|-----------|-----------|-----------||
          ------------|-----------|-----------|-----------||
          --0-0-0-0-1-|-0-0-0-0-1-|-0-0-0-0-1-|-0-0-0-0-1-||
          
          Submitted by a true bass player
[ Tab from: http://www.guitartabs.cc/tabs/l/lost_cause/wannabe_btab.html ]
Comments