Lost And Forgotten - Imprisoned To The Beast Chords & Tabs

 

Imprisoned To The Beast Chords & Tabs

Lost And Forgotten Chords & Tabs

Version: 1 Type: Tab 0 ratings
1 star 2 stars 3 stars 4 stars 5 stars
comments

Imprisoned To The Beast Tab

Lost and Forgotten - Imprisoned To The Beast

Yeaah! This is my band's TAB for my favorite song of ours!    \m/

* = Palm Mute


|-------------------------------------------------------|
|-------------------------------------------------------|
|-------------------------------------------------------|
|-------------------------------------------------------|
|-------2------3------8------7------7-7-7-7-7-7---------|
|-------0------1------6------5------5-5-5-5-5-5---------|
Rep. 3x                             * * * * * *


|-------------------------------------------------------|
|-------------------------------------------------------|
|-------------------------------------------------------|
|-------------------------------------------------------|
|-------2-----222222-----2-----222222-----2-----222222--|
|-------0-----000000-----0-----000000-----0-----000000--|
              ******           ******           ******


|-------------------------------------------------------|
|-------------------------------------------------------|
|-------------------------------------------------------|
|-------------------------------------------------------|
|------2---00---5---3---333---8--7----------------------|
|------0---00---3---1---111---6--5----------------------|
Rep. 5x


|-------------------------------------------------------|
|-------------------------------------------------------|
|-------------------------------------------------------|
|-------------------------------------------------------|
|------5555555-----333--2---22222222--------------------|
|------7777777-----111--0---00000000--------------------|
Rep. 3x                     ********

[ Tab from: http://www.guitartabs.cc/tabs/l/lost_and_forgotten/imprisoned_to_the_beast_tab.html ]
|-------------------------------------------------------|
|-------------------------------------------------------|
|-------------------------------------------------------|
|-------------------------------------------------------|
|------2---00---5---3---333---8--7----------------------|
|------0---00---3---1---111---6--5----------------------|
Rep. 5x


|-------------------------------------------------------|
|-------------------------------------------------------|
|-------------------------------------------------------|
|-------------------------------------------------------|
|------5555555-----333--2---22222222--------------------|
|------7777777-----111--0---00000000--------------------|
Rep. 3x                     ********


(solo)
|-------------------------------------------------------|
|-------------------------------------------------------|
|-------------------------------------------------------|
|-------------------------------------------------8-7---|
|-------5-4------5-4-------5-4-------5-8-7------7-6~----|
|----3---------3---------3----------3-------------------|
Rep. 4x


|------------------------------------------------|
|------------------------------------------------|
|------------------------------------------------|
|------------------------------------------------|
|-----2---2-2---8~---------2---2-2----4-3--------|
|-----0---0-0---6~---------0---0-0----4-3--------|
Rep. 2x


|------------------------------------------------|
|------------------------------------------------|
|------------------------------------------------|
|------------------------------------------------|
|------2---00---5---3---333---8--7---------------|
|------0---00---3---1---111---6--5---------------|
Rep. 2x


|------------------------------------------------|
|------------------------------------------------|
|------------------------------------------------|
|------------------------------------------------|
|------5555555-----333--2-2-2-2--2~~-------------|
|------7777777-----111--0-0-0-0--0~~-------------|
Rep. 3x                                 

Comments