Los Straitjackets - Black Is Black Chords & Tabs

 

Black Is Black Chords & Tabs

Los Straitjackets Chords & Tabs

Version: 1 Type: Tab 0 ratings
1 star 2 stars 3 stars 4 stars 5 stars
comments

Black Is Black Tab

                         LOS STRAITJACKETS
                          BLACK IS BLACK


STANDARD TUNING
EADGBe


----------------------------------------|
----------------------------------------|
----------------------------------------|
-2---0----2---0----2---0----2---0----2--|
---2---2----2---2----2---2----2---2-----|
----------------------------------------|

------------------------------|
------------------------------|
------------------------------|
-0-----0------0------0------0-|
---0-2----0-2----0-2----0-2---|
------------------------------|


---------------------------------|
---------------------------------|
-9------9-------9-------9------9-|
---9-12----9-12----9-12---9-12---|
---------------------------------|
---------------------------------|


---------------------------|
---------------------------|
-7-----7-----7-----7-----7-|
---7-9---7-9---7-9---7-9---|
---------------------------|
---------------------------|


---------------------------------|
---------------------------------|
-9------9-------9-------9------9-|
---9-12----9-12----9-12---9-12---|
---------------------------------|
---------------------------------|


---------------------------|
---------------------------|
-7-----7-----7-----7-----7-|
---7-9---7-9---7-9---7-9---|
---------------------------|
---------------------------|


black is black...
---------------------------------|
---------------------------------|
-9------9-------9-------9------9-|
---9-12----9-12----9-12---9-12---|
---------------------------------|
---------------------------------|

---------------------------|
---------------------------|
-7-----7-----7-----7-----7-|
---7-9---7-9---7-9---7-9---|
---------------------------|
---------------------------|

---------------------------------|
---------------------------------|
-9------9-------9-------9------9-|
---9-12----9-12----9-12---9-12---|
---------------------------------|
---------------------------------|

----------------------------------------|
----------------------------------------|
-14-------14-------14-------14-------14-|
----14-17----14-17----14-17----14-17----|
----------------------------------------|
----------------------------------------|

---------------------------|
---------------------------|
-7-----7-----7-----7-----7-|
---7-9---7-9---7-9---7-9---|
---------------------------|
---------------------------|

---------------------------------|
---------------------------------|
-9------9-------9-------9------9-|
---9-12----9-12----9-12---9-12---|
---------------------------------|
---------------------------------|

----------------------------------------|
----------------------------------------|
-14-------14-------14-------14-------14-|
----14-17----14-17----14-17----14-17----|
----------------------------------------|
----------------------------------------|

---------------------------|
---------------------------|
-7-----7-----7-----7-----7-|
---7-9---7-9---7-9---7-9---|
---------------------------|
---------------------------|

---------------------------------|
---------------------------------|
-9------9-------9-------9------9-|
---9-12----9-12----9-12---9-12---|
---------------------------------|
---------------------------------|

---------------------------|
---------------------------|
-7-----7-----7-----7-----7-|
---7-9---7-9---7-9---7-9---|
---------------------------|
---------------------------|

---------------------------------|
---------------------------------|
-9------9-------9-------9------9-|
---9-12----9-12----9-12---9-12---|
---------------------------------|
---------------------------------|

----------------------------------------|
----------------------------------------|
-14-------14-------14-------14-------14-|
----14-17----14-17----14-17----14-17----|
----------------------------------------|
----------------------------------------|

---------------------------|
---------------------------|
-7-----7-----7-----7-----7-|
---7-9---7-9---7-9---7-9---|
---------------------------|
---------------------------|

---------------------------------|
---------------------------------|
-9------9-------9-------9------9-|
---9-12----9-12----9-12---9-12---|
---------------------------------|
---------------------------------|

----------------------------------------|
----------------------------------------|
-14-------14-------14-------14-------14-|
----14-17----14-17----14-17----14-17----|
----------------------------------------|
----------------------------------------|

---------------------------|
---------------------------|
-7-----7-----7-----7-----7-|
---7-9---7-9---7-9---7-9---|
---------------------------|
---------------------------|


-----------------------------------------------------------------|
-----------------------------------------------------------------|
-9--9-9-9-9-9--11-11-11-11-11-11-12--12-12-12-12-12--12-11-10-9--|
-9--9-9-9-9-9--11-11-11-11-11-11-12--12-12-12-12-12--12-11-10-9--|
-7--7-7-7-7-7--9--9--9--9--9--9--10--10-10-10-10-10--10-9--8--7--|
-----------------------------------------------------------------|

--------------------------------------------------|
--------------------------------------------------|
-9--9-9-9-9-9--9-9-9-9-9--14--14-14-14-14--11-16--|
-9--9-9-9-9-9--9-9-9-9-9--14--14-14-14-14--11-16--|
-7--7-7-7-7-7--7-7-7-7-7--12--12-12-12-12--9--14--|
--------------------------------------------------|

[ Tab from: http://www.guitartabs.cc/tabs/l/los_straitjackets/black_is_black_tab.html ]
bad is back...
---------------------------------|
---------------------------------|
-9------9-------9-------9------9-|
---9-12----9-12----9-12---9-12---|
---------------------------------|
---------------------------------|

---------------------------|
---------------------------|
-7-----7-----7-----7-----7-|
---7-9---7-9---7-9---7-9---|
---------------------------|
---------------------------|

---------------------------------|
---------------------------------|
-9------9-------9-------9------9-|
---9-12----9-12----9-12---9-12---|
---------------------------------|
---------------------------------|

----------------------------------------|
----------------------------------------|
-14-------14-------14-------14-------14-|
----14-17----14-17----14-17----14-17----|
----------------------------------------|
----------------------------------------|

---------------------------|
---------------------------|
-7-----7-----7-----7-----7-|
---7-9---7-9---7-9---7-9---|
---------------------------|
---------------------------|

---------------------------------|
---------------------------------|
-9------9-------9-------9------9-|
---9-12----9-12----9-12---9-12---|
---------------------------------|
---------------------------------|

----------------------------------------|
----------------------------------------|
-14-------14-------14-------14-------14-|
----14-17----14-17----14-17----14-17----|
----------------------------------------|
----------------------------------------|

---------------------------|
---------------------------|
-7-----7-----7-----7-----7-|
---7-9---7-9---7-9---7-9---|
---------------------------|
---------------------------|

--5-----------3---------------7---------5-------------------3-|
--5-----------3---------------7---------5-------------------3-|
--6-----------4---------------8---------6-------------------4-|
--7------2-5--5------2-4------9----2-5--7-------------------5-|
--7----2------5--5-5-----5-0--9--2------7--4-4-5-7-4--------5-|
--5-----------3---------------7---------5------------5-3-2--3-|

-----------------------------------------------------|
-----------------------------------------------------|
-11-11--12-14--14-16-14--12-11-9---12-12-12-12-12-11-|
-12-12--14-16--16-17-16--14-12-11--14-14-14-14-14-12-|
-----------------------------------------------------|
-----------------------------------------------------|

---------------------------|
---------------------------|
-7-----7-----7-----7-----7-|
---7-9---7-9---7-9---7-9---|
---------------------------|
---------------------------|

-----------------------------------------------------------------|
-----------------------------------------------------------------|
-9--9-9-9-9-9--11-11-11-11-11-11-12--12-12-12-12-12--12-11-10-9--|
-9--9-9-9-9-9--11-11-11-11-11-11-12--12-12-12-12-12--12-11-10-9--|
-7--7-7-7-7-7--9--9--9--9--9--9--10--10-10-10-10-10--10-9--8--7--|
-----------------------------------------------------------------|

--------------------------------------------------|
--------------------------------------------------|
-9--9-9-9-9-9--9-9-9-9-9--14--14-14-14-14--11-16--|
-9--9-9-9-9-9--9-9-9-9-9--14--14-14-14-14--11-16--|
-7--7-7-7-7-7--7-7-7-7-7--12--12-12-12-12--9--14--|
--------------------------------------------------|



black is black...
---------------------------------|
---------------------------------|
-9------9-------9-------9------9-|
---9-12----9-12----9-12---9-12---|
---------------------------------|
---------------------------------|

---------------------------|
---------------------------|
-7-----7-----7-----7-----7-|
---7-9---7-9---7-9---7-9---|
---------------------------|
---------------------------|

---------------------------------|
---------------------------------|
-9------9-------9-------9------9-|
---9-12----9-12----9-12---9-12---|
---------------------------------|
---------------------------------|

----------------------------------------|
----------------------------------------|
-14-------14-------14-------14-------14-|
----14-17----14-17----14-17----14-17----|
----------------------------------------|
----------------------------------------|

---------------------------|
---------------------------|
-7-----7-----7-----7-----7-|
---7-9---7-9---7-9---7-9---|
---------------------------|
---------------------------|

---------------------------------|
---------------------------------|
-9------9-------9-------9------9-|
---9-12----9-12----9-12---9-12---|
---------------------------------|
---------------------------------|

----------------------------------------|
----------------------------------------|
-14-------14-------14-------14-------14-|
----14-17----14-17----14-17----14-17----|
----------------------------------------|
----------------------------------------|

---------------------------|
---------------------------|
-7-----7-----7-----7-----7-|
---7-9---7-9---7-9---7-9---|
---------------------------|
---------------------------|

---------------------------------|
---------------------------------|
-9------9-------9-------9------9-|
---9-12----9-12----9-12---9-12---|
---------------------------------|
---------------------------------|

----------------------------------------|
----------------------------------------|
-14-------14-------14-------14-------14-|
----14-17----14-17----14-17----14-17----|
----------------------------------------|
----------------------------------------|

----------------|
----------------|
-7-----7-----7--|
---7-9---7-9----|
----------------|
----------------|


---------------------------|
---------------------------|
-10--12---7----------------|
-10--12---7----------------|
-8---10---5----------------|
---------------------------|

thats it
peace
Comments