Los Prisioneros - Tren Al Sur Chords & Tabs

 

Tren Al Sur Chords & Tabs

Los Prisioneros Chords & Tabs

Version: 1 Type: Tab 0 ratings
1 star 2 stars 3 stars 4 stars 5 stars
comments

Tren Al Sur Tab

Tabbed by: him666himself
e-mail: him666himself@msn.com

Introx4

e--8~---------8~------|----------12~-8~---|
b---------------10~---|-------------------|
g------7-9-10---------|---7-9-10----------|          
d---------------------|-------------------|
a---------------------|-------------------|
e---------------------|-------------------|
[ Tab from: http://www.guitartabs.cc/tabs/l/los_prisioneros/tren_al_sur_tab.html ]
e--8~---------8~------|----------12~-8~---|
b---------------10~---|-------------------|
g------7-9-10---------|---7-9-10----------|          
d---------------------|-------------------|
a---------------------|-------------------|
e---------------------|-------------------|

e--8~---------8~------|----------12~-8~---|
b---------------10~---|-------------------|
g------7-9-10---------|---7-9-10----------|          
d---------------------|-------------------|
a---------------------|-------------------|
e---------------------|-------------------|

e--8~---------8~------|----------12~-8~---|
b---------------10~---|-------------------|
g------7-9-10---------|---7-9-10----------|          
d---------------------|-------------------|
a---------------------|-------------------|
e---------------------|-------------------|
Comments