Los Prisioneros - Sexo Chords & Tabs

 

Sexo Chords & Tabs

Los Prisioneros Chords & Tabs

Version: 1 Type: Bass Tab 0 ratings
1 star 2 stars 3 stars 4 stars 5 stars
comments

Sexo Bass Tab

g------------------------------------------------------------------
d-------------------------------------------------------2----------
a-----------------------------------------------------2------------
e--5-5-5-5----1-1-1-1--5-5-5-5---1-1-1-1--0------0-----------------

g------------------------------------------------------------------
d------------------------------------------------------------------
a----------------4----4----4--5--0--5--0--5--7----7--5--4----------
e--5--0--5--0--5----4----4---------------------7----------7--5-----
[ Tab from: http://www.guitartabs.cc/tabs/l/los_prisioneros/sexo_btab.html ]
Comments