Los Prisioneros - Porqueno Se Van Chords & Tabs

 

Porqueno Se Van Chords & Tabs

Los Prisioneros Chords & Tabs

Version: 1 Type: Bass Tab 0 ratings
1 star 2 stars 3 stars 4 stars 5 stars
comments

Porqueno Se Van Bass Tab

Si sueñas con Nueva York......(x2)

g--------------------------------------------------------------------
d--------------------------------------------------------------------
a-----3-3---3--------3-3--3--------2-2---2--------2-2----2--------1-1-
e-0-3----------3-0-3--------3-0-3-----------3-0-3----------3-0-3------
[ Tab from: http://www.guitartabs.cc/tabs/l/los_prisioneros/porqueno_se_van_btab.html ]
g--------------------------------------------------------------------
d--------------------------------------------------------------------
a--1-------1-1-1-1-----5----5--5--5----5---5--5--5-------------------
e----3-0-3---------------5----------5----5---------------------------

g--------------------------------------------------------------------
d--------------------------------------------------------------------
a---8---8--8--8-----10-----10-10--10----------------------------------
e------8--------8------10---------------------------------------------
Comments