Los Prisioneros - Paramar Chords & Tabs

 

Paramar Chords & Tabs

Los Prisioneros Chords & Tabs

Version: 3 Type: Tab 0 ratings
1 star 2 stars 3 stars 4 stars 5 stars
comments

Paramar Tab

E -------------------------------------------|
B -------------------------------------------|
G -------------------------------------------|
D --7----9----7------------------------5-----|
A --5----5----5----9----7----5----7----3-----|
E -----------------7----5----3----5----------|
[ Tab from: http://www.guitartabs.cc/tabs/l/los_prisioneros/paramar_tab_ver_3.html ]
E -------------------------------------------|
B -------------------------------------------|
G -------------------------------------------|
D --7----9----7------------------------5-----|
A --5----5----5----9----7----5----7----3-----|
E -----------------7----5----3----5----------|
[ Tab from: http://www.guitartabs.cc/tabs/l/los_prisioneros/paramar_tab_ver_3.html ]
Repeat this almost all the song .. hear it first and youŽll get it !

=) ! davidsdelajuventus@hotmail.com
Comments