Los Prisioneros - Paramar Chords & Tabs

 

Paramar Chords & Tabs

Los Prisioneros Chords & Tabs

Version: 2 Type: Tab 0 ratings
1 star 2 stars 3 stars 4 stars 5 stars
comments

Paramar Tab

 Hi!!!! this is my solo version of this song. it's cool  

              
e-----10-10-10-9----10-10-10-9---10-10-10-9---10-10-10-9----|
B----------------10------------9------------8------------7--|
G-----------------------------------------------------------| x2
D-----------------------------------------------------------|
A-----------------------------------------------------------|
E-----------------------------------------------------------|
[ Tab from: http://www.guitartabs.cc/tabs/l/los_prisioneros/paramar_tab_ver_2.html ]
e---9--10--9--10--9--10--10--10--12--12--12--12--12--12--12-|
B-----------------------------------------------------------|
G-----------------------------------------------------------| x2
D-----------------------------------------------------------|
A-----------------------------------------------------------|
E-----------------------------------------------------------|   

e--15-15-15-14----15-15-15-14----15-15-15-14----15-15-15-14---|
B-------------15-------------14-------------13-------------12-|
G-------------------------------------------------------------| x2
D-------------------------------------------------------------|
A-------------------------------------------------------------|
E ------------------------------------------------------------|

           this is all folks enjoy this tab
Comments