Los Prisioneros - Paramar Chords & Tabs

 

Paramar Chords & Tabs

Los Prisioneros Chords & Tabs

Version: 1 Type: Bass Tab 0 ratings
1 star 2 stars 3 stars 4 stars 5 stars
comments

Paramar Bass Tab

----------------------------------------------------------------------
			     PARAMAR - los prisioneros
----------------------------------------------------------------------
By:Felipe vasquez - macrocefalo_@hotmail.com

no hay bajo en los 2 primeros versos y despues va el coro pero antes:

G|--------------------------------------------------------------|
D|--------------------------------------------------------------|
A|----3-333-3-33-333--------------------------------------------|
E|--------------------------------------------------------------|

Coro:
G|--------------------------------------------------------------|
D|--------------------------------------------------------------|
A|-55555----------33333-----------------------------------------|
E|--------55555---------33333-----------------------------------|
x3
y la cuarta vez
G|--------------------------------------------------------------|
D|--------------------------------------------------------------|
A|-55555------3333333333333333333333333333333-------------------|
E|-------55555--------------------------------------------------|
...deves olvidar soņar, deves olvidar sonar.
[ Tab from: http://www.guitartabs.cc/tabs/l/los_prisioneros/paramar_btab.html ]
verse
G|--------------------------------------------------------------|
D|--------------------------------------------------------------|
A|-5555555555555/7777777777777/55555555555555-------------------|
E|-------------------------------------------7777777-555555-----|

G|--------------------------------------------------------------|
D|--------------------------------------------------------------|
A|--------------------------------------------------------------|
E|-3333333333333-555555-8-8-8-8-8-------------------------------|

x2

coro x2
 bridge parecido al verso 
en el solo de la guitarra 
                                  x2
G|----------------------------------|-----------------------------|
D|----------------------------------|--7-7-7----------------------|
A|-55555555444444443333333322222222-|5 ---------------------------|
E|----------------------------------|-----------------------------|

                                  x2
G|----------------------------------|-----------------------------|
D|----------------------------------|--7-7-7----------------------|
A|-55555555444444443333333322222222-|5 ---------------------------|
E|----------------------------------|-----------------------------|


ahora una vez el verso y termina.
Comments