Los Piojos - Tan Solo Chords & Tabs

 

Tan Solo Chords & Tabs

Los Piojos Chords & Tabs

Version: 1 Type: Bass Tab 0 ratings
1 star 2 stars 3 stars 4 stars 5 stars
comments

Tan Solo Bass Tab

Tan Solo - Los Piojos
ChacTuChac (1992)
by Andrejcheck

Standard E Tunning [EADG]

Intro:
E|------------------|---5----------|-------------|---------4--|
A|-3/5--5-0-0-5-4-3-|-3---3--------|---2-2-3-4-5-|-5-0-0-5----|
D|------------------|--------5-4-3-|-3-----------|------------|
G|------------------|--------------|-------------|------------|
[ Tab from: http://www.guitartabs.cc/tabs/l/los_piojos/tan_solo_btab.html ]
Durante toda la cancion hace esto:
During the whole song:
E|----------------|---5----------|-------------|---------4--|
A|-5--5-0-0-5-4-3-|-3---3--------|---2-2-3-4-5-|-5-0-0-5----|
D|----------------|--------5-4-3-|-3-----------|------------|
G|----------------|--------------|-------------|------------|


Cualquier sugerencia escriban a: andrejcheck@ciudad.com.ar
Commentaries or corrections to: andrejcheck@ciudad.com.ar

Comments