Los Miserables - Lorenzo Chords & Tabs

 

Lorenzo Chords & Tabs

Los Miserables Chords & Tabs

Version: 1 Type: Bass Tab 0 ratings
1 star 2 stars 3 stars 4 stars 5 stars
comments

Lorenzo Bass Tab

Song: Lorenzo           
Band: Los Miserables
Album: Miserables
tabbed by: Carlos Pino

    intro                            x2
G:--------------------------------------¦------------------------- 
D:--------------------------------------¦--------------------------
A:---------4-4-4--5-5-5--7-7-7---¦--7>--------------------
E:-5-5-5------------------------------¦-------------------------
[ Tab from: http://www.guitartabs.cc/tabs/l/los_miserables/lorenzo_btab.html ]
    verse
G:---------------------------------------------------------------  x4
D:---------------------------------------------------------------
A:-2-2----------------------------------------------------------
E:------2-2--3-3--0-0----------------------------------------

    coro                            x2
G:--------------------------------------¦-----------------------
D:--------------------------------------¦-----------------------
A:---------4-4-4--5-5-5--7-7-7---¦--7>------------------
E:-5-5-5------------------------------¦-----------------------

verse
coro

   bridge                          x2
G:-------------------------------------¦--------------------------
D:-------------------------------------¦--------------------------
A:-2-2-2--6-6-6--7-7-7--9-9-9-¦--9>---------------------
E:-------------------------------------¦--------------------------
  
verse
coro


Comments