Los Lonely Boys - Senorita Chords & Tabs

 

Senorita Chords & Tabs

Los Lonely Boys Chords & Tabs

Version: 3 Type: Tab 0 ratings
1 star 2 stars 3 stars 4 stars 5 stars
comments

Senorita Tab

   
tabbed by nb
song: senorita (solo)

tuning: tune down 1/2 step
(low to high) Eb-Ab-Db-Gb-Bb-Eb

what's up nate boni here (again) to give all you los lonely boys fans
the solo to senorita. Listen, if anyone wants any of the songs transcribed from the
cd, please feel free to email me at homeostasis6428@yahoo.com
listen to cd for timing

b= bend note
r= release note to original pitch
x= mute note
v~~~= vibrato
/= slide
\= back slide
p= pull-off


gtr.2
w/ wah wah

Eb--------------------------------------------------------------------------|
Bb---------------------------------------------------------------------10---|
Gb---x-----x--x-----------5v~~~~~~-5--x--x--7--7br7--5-----7/9v~~~--9-------|
Db---x--7--x--x--7-7-7----------------x--x--------------7-----------7-------|
Ab--------------------------------------------------------------------------|
Eb--------------------------------------------------------------------------|


Eb------------------------------10b-r(10)--8--10--8--7v~~~--8--7--8--7v~~~--|
Bb--10v~~10~~~10~~~~--x--x--x-----------------------------------------------|
Gb--------------------x--x--x-----------------------------------------------|
Db--------------------------------------------------------------------------|
Ab--------------------------------------------------------------------------|
Eb--------------------------------------------------------------------------|


Eb--7--8--7--5-----------5---------------------------------------------------|
Bb-----------------8br8-----8--5---------------------------------------------|
Gb--------------x------------------8--7--5--7--7br7--5-----5p4-----4--5p4----|
Db--------------x---------------------------------------7-------7----------7-|
Ab---------------------------------------------------------------------------|
Eb---------------------------------------------------------------------------|


Eb----------------------5----------------------------------------7--8p7-----|
Bb--------------------------8p5---------------------------8--10-------------|
Gb--4--5--7v~~--5--7b-------------8p7p5--7--7br7--5--7/9--------------------|
Db--------------------------------------------------------------------------|
Ab--------------------------------------------------------------------------|
Eb--------------------------------------------------------------------------|


Eb-----7--8p7--8p7------7--8--10v~~~~--8--10--8--7---8--7-------------------|
Bb-10---------------10---------------------------------------10--10--10-----|
Gb--------------------------------------------------------------------------|
Db--------------------------------------------------------------------------|
Ab--------------------------------------------------------------------------|
Eb--------------------------------------------------------------------------|

[ Tab from: http://www.guitartabs.cc/tabs/l/los_lonely_boys/senorita_tab_ver_3.html ]
Eb--------------------------------------------------------------------------|
Bb-10/12--12v~~--13--13--13--15--15--15--15/17--17--17--17--17--17--17--17--|
Gb----------------0---0---0---0---0---0---0--0---0---0---0---0---0---0---0--|
Db--------------------------------------------------------------------------|
Ab--------------------------------------------------------------------------|
Eb--------------------------------------------------------------------------|


Eb--------------------------------------------------------------------------|
Bb-17--17--17--17--17--17--17\15--15\13--13\12--12--12--13----13--12--13----|
Gb--0---0---0---0---0---0---0--0---0--0---0--0------------------------------|
Db--------------------------------------------------------------------------|
Ab--------------------------------------------------------------------------|
Eb--------------------------------------------------------------------------|


Eb--------------------------------------------------------------------------|
Bb-12--13--12--13--12--10--10----10--10/12--12--12/13--13--13/15--15-15-15--|
Gb--------------------------------------------------------------------------|
Db--------------------------------------------------------------------------|
Ab--------------------------------------------------------------------------|
Eb--------------------------------------------------------------------------|


Eb----------------------------------19b--19b--19v~~~~~----------------------|
Bb-17-17-17-17/20-20-20-20b-------------------------------------------------|
Gb---------------------------17\-x---------------------------0--------------|
Db---------------------------17\-x---------------------------0--------------|
Ab--------------------------------------------------------------------------|
Eb--------------------------------------------------------------------------|


Eb-19b--19b--19v~~~~------------20b--20b--20v~~~~~--------------------------|
Bb--------------------------------------------------------------------------|
Gb---------------------0---x-x----------------------------------------------|
Db---------------------0---x-x-----------------------19\--x--x--------------|
Ab--------------------------------------------------------x--x--------------|
Eb--------------------------------------------------------------------------|


Eb-----17----17----17------------------------------17-----------------------|
Bb-20b----17----20-------------------------17---------20p17-----------------|
Gb---------------------19br19-17-19-19br19----19b-----------19br19-17-------|
Db--------------------------------------------------------------------------|
Ab--------------------------------------------------------------------------|
Eb--------------------------------------------------------------------------|


Eb--------------------------------------------------------------------------|
Bb--------------------------------------------------------------------------|
Gb-19-19br19-17-19-17-19-17-19-19br19-17-19-17--------0-0-------------------|
Db---------------------------------------------19-19--0-0-------------------|
Ab----------------------------------------------------0-0-------------------|
Eb--------------------------------------------------------------------------|


well thats it, remember email me if you would like any of the songs from
the cd transcribed. enjoy!

nathan r. boni
Comments