Los Lonely Boys - More Than Love Chords & Tabs

 

More Than Love Chords & Tabs

Los Lonely Boys Chords & Tabs

Version: 1 Type: Tab 0 ratings
1 star 2 stars 3 stars 4 stars 5 stars
comments

More Than Love Tab

Band:Los Lonely Boys
Song:More Than Love
Tabbed By:HeavnlyDisturbd
Tuning:Standard
If you have any questions email me at Heavnlydisturbed@yahoo.com

/ Slide Up
\ Slide Down
h Hammer On
p Pull Off
~ Vibrato
+ Harmonic
X Mute Note
   ~//RATE IT!\\~

I have been looking all over the net for this tab but I couldn't find it. So I decided
to tab it out myself. I have played it along with the song and it sounds perfect.

Intro (Clean)
e |------------------|-4----4---4-4---4---|-----------------|
B |------------------|-4/5--4---5-4---5-5-|-5-4---4---------|
G |------------------|-4----4---4-4---6-6-|-6-4---4---------|
D |--X---------------|------------------7-|-6-4---4---------|
A |----X-------4-6-7-|--------------------|-----------4-6-7-|
Eb|------X-7-7-------|--------------------|---------7-------|

e |--4----4---4-4---4---|---------2-------|
B |--4/5--4---5-4---5-5-|---5-2-----2-----|
G |--4----4---4-4---4-6-|---6-2-------2---|
D |-------------------7-|---6-4---------4-|
A |---------------------|-----------------|
Eb|---------------------|-----------------|

0:14 Verse 1
e |----------|-4----4-|---------|-------|-------|-----|-------------------|
B |----------|-4/5--4-|---------|-------|-4---5-|-2---|-------------------|
G |----------|-4----4-|---------|-------|-5---4-|-2---|-------4---4-------|
D |----------|--------|---------|-------|-4---6-|-4---|---4-4-----4-------|
A |----4-6-7-|--------|---4-2---|-------|-6---4-|-4---|-6---------6-4-6-7-|
Eb|--7-------|--------|-------4-|-0---4-|-4-----|-2---|-----------7-------|

0:39 Verse 2 & 3
e |--4----4-|-5---------------|-4----4---|-5---7-|-------|-------|-------|
B |--4/5--5-|---5-------------|-4/5--5---|-5---7-|-------|-4---5-|---2---|
G |--4----4-|-----6-----------|-4----4---|-6---8-|-------|-5---4-|---2---|
D |---------|-----------------|----------|-------|-------|-4---6-|---4---|
A |---------|-----------4-6-7-|----------|-------|-------|-6---4-|---4---|
Eb|---------|---------7-------|----------|-------|-0---4-|-4-----|---2---|

1:04 Chorus
e |--4----4---|---5----7---|---4----4---|-------7--------7-|
B |--5----4---|---5----7---|---5----4---|-------7--------7-|
G |--4----4---|---6----8---|---4----4---|-6--------8-----8-|
D |-----------|------------|------------|-7-----------9----|
A |-----------|------------|------------|-7----------------|
Eb|-----------|------------|------------|-5----------------|
[ Tab from: http://www.guitartabs.cc/tabs/l/los_lonely_boys/more_than_love_tab.html ]
e |--4----4---|---5----7---|------------------------------|
B |--5----4---|---5----7---|------------------------------|
G |--4----4---|---6----8---|---------9--9----9--9--9--9---|
D |-----------|------------|---------9--9----9--9--9--9---|
A |-----------|------------|--------11-11---11-11-11-11---|
Eb|-----------|------------|--0---------------------------|

1:26 Bridge
e |-------|-------------|-------------|
B |--2----|-------------|-------------|
G |--2----|----2---2----|-------------|
D |--4----|------4------|---------2/4-|
A |--4----|-------------|-----2/4-----|
Eb|--2----|-------------|-------------|

1:38 Solo
e |------------------|--------------------|--------------------------|
B |------------------|--------------------|------------5\4--4\2--2/4-|
G |--/4--/4----6\4-2-|--------------------|-/4--/4---4---------------|
D |--/6--/6----------|-2/4\2-2--------2-4-|-/6--/6-------------------|
A |------------------|------------2/4-----|--------------------------|
Eb|------------------|--------------------|--------------------------|
                                   
e |-----------------------|----------------------------------|
B |--2/4\2--------9-10-12-|---------~~~~~~~-----9--10--------|
G |-------------9---------|-11----9-9------11---------11--11-|
D |-----------------------|----------------------------------|
A |-----------------------|----------------------------------|
Eb|-----------------------|----------------------------------|

e |---------------------------------|-------------------12-14-14-|
B |--~~~~~~----------~~~~~~~--------|--------------12------------|
G |--9-----11-(11)--(11)----11-(11)-|-(11)-9---------------------|
D |---------------------------------|----------------------------|
A |---------------------------------|----------------------------|
Eb|---------------------------------|----------------------------|

2:00 Bridge
     ~~~~~~~~
e |--(14)------|-----------------|-------|-------------------|
B |------------|-------~~~~~~----|-------|------------~~~~~~~|
G |------------|---4---4---------|-~~~~~~|------------4------|
D |------------|-----6-------6-5-|-4-----|----------4--------|
A |------------|-----------------|-------|-6----6-6----------|
Eb|------------|-----------------|-------|---7---------------|

Well there it is. After the bridge is the outro-chorus which starts at 2:38 but just
the vibrato from the last note played on lead. Make sure you listen to the song to get
the timing down. Good luck and rock on.
Comments