Los Lonely Boys - Hollywood Chords & Tabs

 

Hollywood Chords & Tabs

Los Lonely Boys Chords & Tabs

Version: 2 Type: Tab 0 ratings
1 star 2 stars 3 stars 4 stars 5 stars
comments

Hollywood Tab

   
Los Lonely Boys
Hollywood
Transcribed by Soch Hean
Tuning: Standard (EADGBE)

Intro:
|-8---8---x--10---10---10-10-10-10p8---8---8---x--10---10---10-10-10-10p8--x-x--|
|-8---8---x--8----8----8--8--8--8------8---8---x--8----8----8--8--8--8-----x-x--|
|-8---8---x--8----8----8--8--8--8------8---8---x--8----8----8--8--8--8-----x-x--|
|-10--10--x--10---10---10-10-10-10-----10--10--x-10---10---10-10-10-10-----x-x--|
|---------x------------------------------------x---------------------------x-x--|
|---------x------------------------------------x---------------------------x-x--|

|-6---6-x-x-x-6---6-6-6-6-----6---6--x-6-6-6---6-6-6-6--------|
|-6---6-x-x-x-6---6-6-6-6-----6---6--x-6-6-6---6-6-6-6--------|
|-7---7-x-x-x-7h8-8-8-8-8p7---7---7--x-7-7-7h8-8-8-8-8p7------|
|-8---8-x-x-x-8---8-8-8-8-----8---8--x-8-8-8---8-8-8-8--------|
|------------------------------------x------------------------|
|------------------------------------x------------------------|

Intro Solo: (0:08)
|----------------------------------------------------------------------------|
|----------------------------------------------------------------------11-13-|
|----------------------7-8p7----------------7-8p7----------------10-12-------|
|-----8-8h10p8----8-10-------8-8~-----8h=10-------10-8--8-10s=12-------------|
|-/10----------10-----------------10-----------------------------------------|
|----------------------------------------------------------------------------|

|-11p10------------10-11-13-11-10------------------6---6--6---6-----|
|-------13--x-11~-----------------13-11-11~--------6---6--6---6-----|
|-------------------------------------------12-----7h8-7--7h8-7-----|
|-------------------------------------------------------------------|
|-------------------------------------------------------------------|
|-------------------------------------------------------------------|


Verse:
Bb
I'm calling up my Cheri
Bb
To tell her that I'm gonna leave
|--------------------------|
|-------11-13-13s15--11----|
|-10-12--------------------|
|--------------------------|
|--------------------------|
|--------------------------|
           Eb
Cause I'm movin' on
|-----------|
|-11--------|
|----11-----|
|-----------|
|-----------|
|-----------|
     Ebm          Bb
To Hollywood you see
|------------------------------------------|
|----------6------------------6-6h8--6-6~--|
|------7-8---8-7h8p7------7-8--------------|
|----8-------------------------------------|
|--8---------------------------------------|
|------------------------------------------|


Verse 2:
Bb
It's always been a life long dream
|-6----6----|
|-6h8--8p6--|
|-----------|
|-----------|
|-----------|
|-----------|
Bb
For my family
|-----10----10-------|
|-----------------8--|
|-/10----10----------|
|--------------------|
|--------------------|
|--------------------|
Eb
To see me
Ebm              Bb
On that silver screen
|------------------------------|
|--------6---------------------|
|---7-8----8-7-----------------|
|-8------------8---------------|
|----------------8--6--5-5-----|
|------------------------------|


Chorus:
       Cm               F
And I know I can't go wrong
|---------------------------|
|---------------------------|
|-8-------8h10--10--10------|
|---10-10-------------------|
|---------------------------|
|---------------------------|
PM |-----|
          Cm              F
Cause I finally found my song
|-------------6-8-----|
|---------6-8---------|
|-----7-8-------------|
|---8-----------------|
|-8-------------------|
|---------------------|
      Cm               F
I'm headin' where I belong
|-6---6---------------|
|-6h8-6---------------|
|-------7h8-7---------|
|---------------------|
|---------------------|
|---------------------|
Bb
Hollywood
|------------6~----6---6-|
|-6-------------8--6h8-6-|
|---8-7------------------|
|--------8---------------|
|------------------------|
|------------------------|


Verse 3:
Bb
I know there's something in store for me
|-------10------------|
|----------13----11---|
|-10s12----------10---|
|---------------------|
|---------------------|
|---------------------|
Bb
But nothing like the tragedies
|-------------------------|
|-------11-13-13s15--11---|
|--------------------12---|
|-10s12-------------------|
|-------------------------|
|-------------------------|
           Eb
That have seen me through
   Ebm            Bb
In real life you see
|---------------------------------------------------------|
|-4p3--6p3--4p3--6p3--4p3--6p3--4p3--6p3--4p3-------------|
|---------------------------------------------5p3-5s7-----|
|---------------------------------------------------------|
|---------------------------------------------------------|
|---------------------------------------------------------|


Chorus:
       Cm              F
And I know I can't go wrong
|------------------------------|
|-10h11p10-------10-11p10------|
|----------12-------------12---|
|------------------------------|
|------------------------------|
|------------------------------|
         Cm               F
Cause I finally found my song
|------------------|
|-6-6h8--6-6--8----|
|------------------|
|------------------|
|------------------|
|------------------|
     Cm               F
I'm headin' where I belong 
|-5h6p5---------------|
|-------8-6-8s10-6----|
|---------------------|
|---------------------|
|---------------------|
|---------------------|
Cm
Hollywood
|-----------------------------|
|----10-11p10----10-11-13-----|
|-12----------12--------------|
|-----------------------------|
|-----------------------------|
|-----------------------------|
Bb
Hollywood
|-8s10-8--------------------------|
|--------11-10--------------------|
|---------------10--8--7-7-7------|
|---------------------------------|
|---------------------------------|
|---------------------------------|


Guitar Solo: (1:57)
|-----11----10---8-------11-10-8s10-6---------6-----6------6----|
|-------------------------------------------6---6---------------|
|-/12-12-10----8-----/12-12-10-8s10-7---7h8-------8---7-7-------|
|---------------------------------------------------------------|
|---------------------------------------------------------------|
|---------------------------------------------------------------|

|-----11----10---8s=10s8------11-10--8s10--6---------6-------------|
|--------------------------------------------------6-------6-------|
|-/12-12-10----8----------/12-12-10--8s10--7---7h8-----8-8---------|
|------------------------------------------------------------8-8---|
|------------------------------------------------------------------|
|------------------------------------------------------------------|
[ Tab from: http://www.guitartabs.cc/tabs/l/los_lonely_boys/hollywood_tab_ver_2.html ]
|-------10-----------------|
|-11-13----13-11-----------|
|----------------12s14-----|
|--------------------------|
|--------------------------|
|--------------------------|


Bridge:
Dm                Gm              C
I know that something's there for me
            F
I'm flying free
|-10h11p10-----------10-11p10-----------------------------------------|
|----------13--11-13----------13-----11-------------------------------|
|---------------------------------12----12--10p7-10p7-10-8p7----------|
|------------------------------------------------------------10-------|
|---------------------------------------------------------------------|
|---------------------------------------------------------------------|


Verse 4:
Bb
Next time that you see me
|------------------|
|-11h=13-11--------|
|------------12----|
|------------------|
|------------------|
|------------------|
Bb
I'll be done with misery
|-----10----10--11----|
|---------------------|
|-/10----10-----12----|
|---------------------|
|---------------------|
|---------------------|
         Eb
I'll be shinin' bright
|----------------------|
|-15s13--11------------|
|-----------11---------|
|----------------------|
|----------------------|
|----------------------|
    Ebm              Bb
For all the world to see
|----------------10--8s10--------------------|
|-15s13--11----------------------6h8--6------|
|----------------10--8s10--------------------|
|--------------------------------------------|
|--------------------------------------------|
|--------------------------------------------|


Chorus:
       Cm               F
And I know I can't go wrong
|-----10--8s10s8-------------------|
|----------------------------------|
|-/10-10--8s10s8-------------------|
|----------------------------------|
|----------------------------------|
|----------------------------------|
          Cm              F
Cause I finally found my song
|-6----6--6---6--------------------|
|-6h8--6--6---6--------------------|
|---------7h8-7--8-8s10------------|
|----------------------------------|
|----------------------------------|
|----------------------------------|
     Cm               F
I'm headin' where I belong
Cm
Hollywood
|-10h11p10----------------------------------------|
|----------13p11----11-11~----11-13-11------------|
|----------------12--------------------10s12-10---|
|-------------------------------------------------|
|-------------------------------------------------|
|-------------------------------------------------|
Bb
Hollywood
|-13-11-10-------------------------|
|----------11-------------11-------|
|-------------12-10----------------|
|-------------------13-12----------|
|----------------------------------|
|----------------------------------|
       Cm              F
And I know I can't go wrong
|-8--8-10-8-------|
|-----------------|
|-8--8-10-8-------|
|-----------------|
|-----------------|
|-----------------|
          Cm              F
Cause I finally found my song
|-10-10-10-10-10-10--8---6--6--6----|
|-8--8--8--8--8--8---8---6--6--6----|
|-8--8--8--8--8--8---8--------------|
|-10-10-10-10-10-10--10-------------|
|-----------------------------------|
|-----------------------------------|
       Cm              F
I'm headin' where I belong
|-10h11p10-10----------------------|
|--------------11-13-13-13---------|
|----------------------------------|
|----------------------------------|
|----------------------------------|
|----------------------------------|
Cm
Hollywood
|----------------------------------|
|-11-13-13s15-13--11-11------------|
|-----------------------10-10------|
|----------------------------------|
|----------------------------------|
|----------------------------------|
Bb
Hollywood
|------10----8----6-----|
|-----------------------|
|-8s10-10--8----7-------|
|-----------------------|
|-----------------------|
|-----------------------|
Cm
Hollywood 
Bb
Hollywood


Outro Solo: (3:42)
|---------------------------------------------------------------------|
|---------------------------------------------------------------------|
|---------------------------------------------------------------------|
|-----8-8h10p8----8-10-10-8-10------8-10-10-8-10------8-10-10-8-10----|
|-/10----------10--------------8h10--------------8h10-----------------|
|---------------------------------------------------------------------|

|---------------------------------------------------------------------|
|---------------------------------------------------------------------|
|---------------------------------------------------------------------|
|------8-10-10-8-10--------8-8----8-------8-8----8-------8-8----8-----|
|-8h10----------------8h10-----10----8h10-----10----8h10-----10-------|
|---------------------------------------------------------------------|

|-----------------------------------------------------------------------|
|-----------------------------------------------------------------------|
|-----------------------------------------------------------------------|
|------8-8----8--------8-10-10-8-10------8-10-10-8-10------8-10-10-8-10-|
|-8h10-----10-----8h10--------------8h10--------------8h10--------------|
|-----------------------------------------------------------------------|

|----------------------------------------------------10-11-10h11p10-----|
|-------------------------------------11~------11-13--------------------|
|-------------------------10~-10~--12-----12----------------------------|
|------8-8----8-----10s12-----------------------------------------------|
|-8h10-----10----10-----------------------------------------------------|
|-----------------------------------------------------------------------|

|----10--------10-11-13---11----10-------------------------10-11p10--------|
|-13-----11-13---------------13----11-13-11----11----11-13----------13-11--|
|-------------------------------------------12----12-----------------------|
|--------------------------------------------------------------------------|
|--------------------------------------------------------------------------|
|--------------------------------------------------------------------------|
     
|----------10-11p10----------------10--13--11--10----------------------|
|----11-13----------13-11----11-13------------------13b15-13b15-13--11-|
|-12----------------------12-------------------------------------------|
|----------------------------------------------------------------------|
|----------------------------------------------------------------------|
|----------------------------------------------------------------------|

Chords:
Bb:    688766
Eb:    x6888x
Ebm:   x68876
Cm:    x35543 or 8-10-10-8-8-8
F:     133211
Dm:    x57765
Gm:    355333
C:     x32010 or 8-10-10-9-8-8

Comments