Los Lonely Boys - Dime Mi Amor Chords & Tabs

 

Dime Mi Amor Chords & Tabs

Los Lonely Boys Chords & Tabs

Version: 1 Type: Tab 0 ratings
1 star 2 stars 3 stars 4 stars 5 stars
comments

Dime Mi Amor Tab

   
Los Lonely Boys
Dime Mi Amor
Transcribed by Soch H.
Tuning: (Eb Ab Db Gb Bb Eb) (half-step down)

1st Solo: (1:35)
|--------------------------------------------0--0----0-0---0-0------|
|--------------------------------------------0--0--2s5-5-5s7-7------|
|-2b4rp0------2p0---------------------------------------------------|
|-----------------2-2~--0--------------2----------------------------|
|-------------------------2-1-0h1p0---------------------------------|
|-----------------------------------3-------------------------------|

|---0-0----0--0-----0--0-----0--0-----0--0-----0--0-----0----0----0-|
|-7s8-8-8s10-10-10s12-12-12s15-15-15s17-17-17s19-19-19s20---19---17-|
|-------------------------------------------------------------------|
|-------------------------------------------------------------------|
|-------------------------------------------------------------------|
|-------------------------------------------------------------------|

|--0--0---0--0--0--0--0--0--0--0---0--0--------12-12-------12-12----|
|-19-17--15-15-17-15-12-12-15-12--15-12--------12-12-------12-12----|
|----------------------------------------14b16-------14b16----------|
|-------------------------------------------------------------------|
|-------------------------------------------------------------------|
|-------------------------------------------------------------------|
[ Tab from: http://www.guitartabs.cc/tabs/l/los_lonely_boys/dime_mi_amor_tab.html ]
|-------12-12-------12-12-------12-12-12------------------------------|
|-------12-12-------12-12-------12-12-12------------------------------|
|-14b16-------14b16-------14b16----------14pb16r(14)p12-14--14b16r(14)|
|---------------------------------------------------------------------|
|---------------------------------------------------------------------|
|---------------------------------------------------------------------|
					    ~~
|-------------------------------------------------------------------|
|-------------------------------------------------------------------|
|----12-14p12--11-12--11h12p11-------------12-----------------------|
|------------------------------14-12-14-14-----14-12----------------|
|-------------------------------------------------------------------|
|-------------------------------------------------------------------|

|--------------12---------12-14--12h14p12----12--15b17-15--14-15----|
|-----------12----15b15.5-----------------15------------------------|
|-14b==16-----------------------------------------------------------|
|-------------------------------------------------------------------|
|-------------------------------------------------------------------|
|-------------------------------------------------------------------|

|-14---15p14p12----12-----------------------------------------------|
|---------------15----15b17--15-12----------------------------------|
|-----------------------------------14-12-----------------12-14-----|
|-----------------------------------------14-12-14--14-14-----------|
|-------------------------------------------------------------------|
|-------------------------------------------------------------------|

						~~
|-------------------------------------------------------------------|
|-------------------------------------------------------------------|
|-14b16-14--12------------------------12-12-------------------------|
|--------------14-12------14-14-14-14-------14-14--14-14-14-14-14---|
|-----------------------x-------------------------------------------|    
|---------------------x---------------------------------------------|    
					  ~~~~                           
|-------------------------------------------------------------------|    
|-------------------------------------------------------------------|    
|-------------------------11-11-12-12-12-14----12-14p12-------------| 
|-14-14-13-13-13-14-14-14-------------------------------------------|
|-------------------------------------------------------------------|
|-------------------------------------------------------------------|

|-------12-12-------12-12-------12-12-------12-12-------12-12-12-12-|
|-------12-12-------12-12-------12-12-------12-12-------12-12-12-12-|
|-14b16-------14b16-------14b16-------14b16-------14b16-------------|
|-------------------------------------------------------------------|
|-------------------------------------------------------------------|
|-------------------------------------------------------------------| 
(End of 1st solo)
Comments