Los Lobos - La Bamba Chords & Tabs

 

La Bamba Chords & Tabs

Los Lobos Chords & Tabs

Version: 4 Type: Tab 2 ratings
1 star 2 stars 3 stars 4 stars 5 stars
comments

La Bamba Tab

THIS IS A VERY EASY SONG TO PLAY, LISTEN TO THE SONG TO GET AN IDEA.
THERE ARE MANY WAYS TO PLAY THIS SONG THESE ARE JUST TWO VERSIONS

                          ENGLISH VERSION
[ Tab from: http://www.guitartabs.cc/tabs/l/los_lobos/la_bamba_tab_ver_4.html ]
E--------------------------------------------------------------
B-------------:-------------------------------:----------------
G------------------0---2-0-------------------------------------
D----------------2---3-----------0-3-3-2-0---------------------
A------0-2-3--:----------------2-----------3--:----------------
E ---3-----------------------3---------------------------------

                          SPANISH VERSION

E--------------------------------------------------------------
B----------:--------------0--------------:---------------------
G--------------0---2-0------2-0--------------------------------
D------------2---3--------------3-2-0--------------------------
A----0-2-3-:--------------------------3--:---------------------
E--3-----------------------------------------------------------

THE CHORDS ARE JUST THREE C, F, G,
HOPE YOU ENJOY    LATERS
                         ~DANNY LOPEZ~
Comments