Los Lobos - La Bamba Chords & Tabs

 

La Bamba Chords & Tabs

Los Lobos Chords & Tabs

Version: 1 Type: Tab 5 ratings
1 star 2 stars 3 stars 4 stars 5 stars
comments

La Bamba Tab

   
E--------------------------------------------------------------
B-------------:-------------------------------:----------------
G------------------0---2-0-------------------------------------
D----------------2---3-----------0-3-3-2-0---------------------
A------0-2-3--:----------------2-----------3--:----------------
E ---3-----------------------3---------------------------------


listen to the song and you will get the theme and carry this on for the rest of the song
g -----------------0---2-0-------------------------------------
D----------------2---3-----------

Daniel Bhattacharya

e-mail 

danny.b3@ntlworld.com and tell me what you think and if i have made a mistake

Thanks
[ Tab from: http://www.guitartabs.cc/tabs/l/los_lobos/la_bamba_tab.html ]
Comments