Loreena Mckennitt - Serenissima Chords & Tabs

 

Serenissima Chords & Tabs

Loreena Mckennitt Chords & Tabs

Version: 1 Type: Tab 0 ratings
1 star 2 stars 3 stars 4 stars 5 stars
comments

Serenissima Tab

Song Title: 	Serenissima
Artist: 	Loreena McKennitt
Album: 		Book of Secrets
Transcription:	David Msika (dmsika@shiny.com)

Notation:

|  	Measure separation
|| 	end of the line
// 	separation
(the left and the right side of the separation are not played back to back)
p stands for pull-up (don't strike the third note, but release your finger 
from the second note's fret)
x2	Play twice and then move on to the rest of the song


The same pattern is repeated throughout the whole song, and
played by different instrument each time.
[ Tab from: http://www.guitartabs.cc/tabs/l/loreena_mckennitt/serenissima_tab.html ]
E||---0-0-0-----------------|---------0---------------------||
B||---------1-0-------0-1-0-|---0-1-3---1-0-------0-0h1p0---||
G||-2-----------2-0-2-------|---------------2-0-2---------2-||
D||-------------------------|-------------------------------||
A||-0-----------------------|-------------------------------||
E||-------------------------|-------------------------------|| X2

E||-0---0-2-3-----------0---|---0---0-2-3-------------------||
B||---3-------5-3-0-1-3-----|-----3-------5-3-0-1-0---------||
G||-------------------------|-----------------------2-------||
D||-------------------------|-------------------------(2)---||
A||-------------------------|----------------------------(0)||
E||-------------------------|-------------------------------|| X2
Comments