Lordi - Would You Love A Monsterman Chords & Tabs

 

Would You Love A Monsterman Chords & Tabs

Lordi Chords & Tabs

Version: 1 Type: Bass Tab

Would You Love A Monsterman Bass Tab

ARTIST - LORDI
SONG - WOULD YOU LOVE A MONSTERMAN
ALBUM - GET HEAVY
TUNING - STANDARD
TABBED BY 24fRETSoFfURY

THIS IS CORRECT SO DONT RATE IT UNTIL YOU HAVE LEARNT IT

INTRO
|----------------------------------------------------------------|
|----------------------------------------------------------------|
|-0h2--0h2--0h2-0h2--0h2--0h2-0h2--0h2--0h2-0h2--0h2--0h2--------|
|----------------------------------------------------------------|

|----------------------------------------------------------------|
|----------------------------------------------------------------|
|----------------------------------------------------------------|
|-222~-----555~--------------------------------------------------|

VERSE
|----------------------------------------------------------------|
|----------------------------------------------------------------|
|-2--2--2--2--2--2--2--2--------2--2-----------------------------|
|-------------------------3~--5-------3~------222~-----555~------|

CHORUS 1
|----------------------------------------------------------------|
|----------------------------------------------------------------|
|----------------------------------------------------------------|
|-77-5-75-33-5-77-55-2-55-77-2-5--77-5-75-33-5-77-55-2-55-33~----|

VERSE
|----------------------------------------------------------------|
|----------------------------------------------------------------|
|-----2--2--2--2--2--2--2--2--------2--2-------------------------|
|-22--------------------------3~--5-------3~------222~-----555~--|
[ Tab from: http://www.guitartabs.cc/tabs/l/lordi/would_you_love_a_monsterman_btab.html ]
CHORUS 1
|----------------------------------------------------------------|
|----------------------------------------------------------------|
|----------------------------------------------------------------|
|-77-5-75-33-5-77-55-2-55-77-2-5--77-5-75-33-5-77-55-2-55-33~----|

BRIDGE
|----------------------------------------------------------------|
|----------------------------------------------------------------|
|-------------------2-4-5----------------------------------------|
|-0~----2~----3~----------5---0~----2~----3~------555~-----------|

|----------------------------------------------------------------|
|----------------------------------------------------------------|
|-0h2-0h2-0h2-0h2--5------------5-0-----------0h2-0h2-0h2-0h2----|
|--------------------5--2h3-2h3------2-5-6-----------------------|

|----------------------------------------------------------------|
|----------------------------------------------------------------|
|-5---------------------------------------2--------------2-7-6---|
|---5--0~----2~----3~-----222~-----555~------------3-4-5---------|

CHORUS 2
|----------------------------------------------------------------|
|----------------------------------------------------------------|
|----------------------------------------------------------------| X2
|-99-7-97-55-7-99-77-4-77-99-4-7--99-7-97-55-7-99-77-4-77-55~----|

|----------------------------------------------------------------|
|----------------------------------------------------------------|
|--------2-7-6-4-------------------------------------------------|
|--3-4-5---------------------------------------------------------|

EASY SONG TO LEARN AND FUN TO PLAY. LORDI KICKS ASS.