Lordi - Not The Nicest Guy Chords & Tabs

 

Not The Nicest Guy Chords & Tabs

Lordi Chords & Tabs

Version: 1 Type: Tab

Not The Nicest Guy Tab

Intro

e|----------------------------------------------------------|                 4x
B|----------------------------------------------------------|
G|----------------------------5-----------------------------|
D| 7-7-5-7-2-5-7-7-5-7-2-5-3-3--3-5---7---------------------|
A| 7-7-5-7-2-5-7-7-5-7-2-5-3----3-5-5-----------------------|
D| 7-7-5-7-2-5-7-7-5-7-2-5-3----3-5-------------------------|

Something I dont no

Than again:
[ Tab from: http://www.guitartabs.cc/tabs/l/lordi/not_the_nicest_guy_tab.html ]
e|----------------------------------------------------------|                 2x
B|----------------------------------------------------------|
G|----------------------------5-----------------------------|
D| 7-7-5-7-2-5-7-7-5-7-2-5-3-3--3-5---7---------------------|
A| 7-7-5-7-2-5-7-7-5-7-2-5-3----3-5-5-----------------------|
D| 7-7-5-7-2-5-7-7-5-7-2-5-3----3-5-------------------------|

Something I dont no

Than Solo (Begin):

e|-------------------------------------|
G|-------------------------------------|
G|-----7~---------------------8-10^-8--|
D|7-10---10-7-a few time's 9-9-------9-|
A|-------------------------------------|
D|-------------------------------------|