Lordi - Hard Rock Hallelujah Chords & Tabs

 

Hard Rock Hallelujah Chords & Tabs

Lordi Chords & Tabs

Version: 1 Type: Tab 6 ratings
1 star 2 stars 3 stars 4 stars 5 stars
comments

Hard Rock Hallelujah Tab

I was very impressed when saw their performance in Eurovision 2006, and I liked the song, so I tried to rip the tabs. Of course, it's not 100% perfect, but still something.

Note: This song is actually played in Eb tuning, but I was too lazy to tune down my guitar, so the tabs are for the standard EADGBE tuning.

                           
E||----------------------------------------------------------------------------------
B||----------------------------------------------------------------------------------
G||----------------------------------------------------------------------------------
D||--5----5----8----8-----10----10----10----3-----5----5----8----8----8----8----3----
A||--5----5----8----8-----10----10----10----3-----5----5----8----8----8----8----3----
E||--3----3----6----6-----8-----8-----8-----1-----3----3----6----6----6----6----1----

Short riff without vocals...                                       
E||-----------------------------------------------
B||-----------------------------------------------
G||-----------------------------------------------
D||--5----8----7----7----8----7----10----8----8---
A||--5----8----7----7----8----7----10----8----8---
E||--3----6----5----5----6----5----8-----6----6---

E||-----------------------------------------------
B||-----------------------------------------------
G||-----------------------------------------------
D||--5----8----7----7----8----7----10-----8-------
A||--5----8----7----7----8----7----10-----8-------
E||--3----6----5----5----6----5----8------6-------


[ Tab from: http://www.guitartabs.cc/tabs/l/lordi/hard_rock_hallelujah_tab.html ]
E||-----------------------------------------------\
B||----------------------------------------------- \
G||------------8----8--------------5---5---3---2--  \
D||--5----5----8----8----3----3----5---5---3---2--   \
A||--5----5----6----6----3----3----3---3---1---0--    \ 
E||--3----3--------------1----1-------------------     \
                                                          This riff repeats until 'All we need is lightning...'
E||-----------------------------------------------      /
B||-----------------------------------------------     /
G||------------8----8--------------5---5---3---2--    /
D||--5----5----8----8----3----3----5---5---3---2--   / 
A||--5----5----6----6----3----3----3---3---1---0--  /
E||--3----3--------------1----1------------------- /


E||------------------------------------------------------------------
B||------------------------------------------------------------------
G||------------------------------------------------------------------
D||--8-8-8-8-8-8-8-8-5-5-5-5-5-5-5-5-3-3-3-3-3-3-3-3-1-1-1-1-1-1-1-1-
A||--6-6-6-6-6-6-6-6-5-5-5-5-5-5-5-5-3-3-3-3-3-3-3-3-1-1-1-1-1-1-1-1-
E||--6-6-6-6-6-6-6-6-3-3-3-3-3-3-3-3-1-1-1-1-1-1-1-1-----------------
As the moon is rising......
E||------------------------------------------------------------------
B||------------------------------------------------------------------
G||--------------------------------------------------7-7-7-7-7-7-7-7-
D||--8-8-8-8-8-8-8-8-5-5-5-5-5-5-5-5-3-3-3-3-3-3-3-3-7-7-7-7-7-7-7-7-
A||--6-6-6-6-6-6-6-6-5-5-5-5-5-5-5-5-3-3-3-3-3-3-3-3-5-5-5-5-5-5-5-5-
E||--6-6-6-6-6-6-6-6-3-3-3-3-3-3-3-3-1-1-1-1-1-1-1-1-----------------


###CHORUS###


E||----------------------------------------------------
B||----------------------------------------------------
G||----------------------------------------3--3--3--3--
D||--5--5--5--5--3--3--3--3----1--1--1--1--3--3--3--3--
A||--5--5--5--5--3--3--3--3----1--1--1--1--1--1--1--1--
E||--3--3--3--3--1--1--1--1----------------------------


E||----------------------------------------------------
B||----------------------------------------------------
G||--5--5--5--5--8--8--8--8----3--3--3--3--------------
D||--5--5--5--5--8--8--8--8----3--3--3--3--3--3--3--3--
A||--3--3--3--3--6--6--6--6----1--1--1--1--3--3--3--3--
E||----------------------------------------1--1--1--1--


E||----------------------------------------------------
B||----------------------------------------------------
G||----------------------------------------3--3--3--3--
D||--5--5--5--5--3--3--3--3----1--1--1--1--3--3--3--3--
A||--5--5--5--5--3--3--3--3----1--1--1--1--1--1--1--1--
E||--3--3--3--3--1--1--1--1----------------------------


E||----------------------------------------------------
B||----------------------------------------------------
G||--5--5--5--5--8--8--8--8----3--3--3--3--------------
D||--5--5--5--5--8--8--8--8----3--3--3--3--3--3--3--3--
A||--3--3--3--3--6--6--6--6----1--1--1--1--3--3--3--3--
E||----------------------------------------1--1--1--1--

Feel free to visit author's website: http://www.guitarrig2.com
Comments