Lordi - Devil Is A Loser Chords & Tabs

 

Devil Is A Loser Chords & Tabs

Lordi Chords & Tabs

Version: 1 Type: Bass Tab

Devil Is A Loser Bass Tab

Intro

           / = push down on the string to make a wurring noise
     (X4)         do it quite slowly   listen to song to hear how slow
G -------------------------------------------------------------------------|
D -------------------------------------------------------------------------|
A -------------------------------------------------------------------------|
E ---5-slide-to-1----------------------------------------------------------|


Intro Riff
             (X8)   i think
G -------------------------------------------------------------------------|
D -------------------------------------------------------------------------|
A -------------------------------------------------------------------------|
E ----0--0--3--5--5/-------------------------------------------------------|
[ Tab from: http://www.guitartabs.cc/tabs/l/lordi/devil_is_a_loser_btab.html ]
Verse 1
                  (X2)
G -------------------------------------------------------------------------|
D -------------------------------------------------------------------------|
A ----4-4-4-4-4-4-4-4--4-4-4-4-4-4-4-4--4-4-4-4-4-4-4-4--4-4-4-4-4-4-4-4---|
E -------------------------------------------------------------------------|

G -------------------------------------------------------------------------|
D -------------------------------------------------------------------------|
A --2-2-2-2-2-2-2-2-------------------------------------4-4-4-4-4-4-4-4----|
E -------------------4-4-4-4-4-4-4-4--5-5-5-5--4-4-4-4---------------------|


Chorus intro

G -------------------------------------------------------------------|
D -------------------------------------------------------------------|
A ---7-7-7-7-7-7-7-7-----------------5-5-5-5-5-5-5-5-----------------|
E -------------------7-7-7-7-7-7-7-7-----------------5-5-5-5-5-5-5-5-|

G -------------------------------------------------------------------|
D -------------------------------------------------------------------|
A -3-3-3-3-3-3-3-3---------------------------------------------------|
E -----------------3-3-3-3-3-3-3-3-----------------------------------|

and thats as far as i have got for now. i'll try and get the rest

thanks for lookin at these
tell me what you think. my name is Adam

mada_123@hotmail.co.uk

rock on!!!