Lord Of The Lost - See You Soon Chords & Tabs

 

See You Soon Chords & Tabs

Lord Of The Lost Chords & Tabs

Version: 1 Type: Tab 0 ratings
1 star 2 stars 3 stars 4 stars 5 stars
comments

See You Soon Tab

   
Tuning: C F Bb Eb G C

INTRO

    Dm      G      Em      F       Dm      G      Am
C ------1------------------------------1------------------0-------|
F -------------0------------------------------0---------1---1-----|
Bb----2---2--0---0-----0-------2-0---2---2--0---0-----2-------2---|
Eb--0----------------2---2---3-----0----------------2-----------2-|
G ------------------------------------------------0---------------|
C ----------3------0-------1---------------3----------------------|

VERSE

    Dm      G      Em      F       Dm      G      Am
C ------1------------------------------1------------------0-------|
F -------------0------------------------------0---------1---1-----|
Bb----2---2--0---0-----0-------2-0---2---2--0---0-----2-------2---|
Eb--0----------------2---2---3-----0----------------2-----------2-|
G ------------------------------------------------0---------------|
C ----------3------0-------1---------------3----------------------|
[ Tab from: http://www.guitartabs.cc/tabs/l/lord_of_the_lost/see_you_soon_tab.html ]
    Dm      G      Em      F       Dm             E
C ------1----------------------------------1---------------0-------|
F -------------0-----------------------3-----3---3-------0---0-----|
Bb----2---2--0---0-----0-------2-0---2---2-----2-------1-------1---|
Eb--0----------------2---2---3-----0-----------------2-----------2-|
G -----------------------------------------------------------------|
C ----------3------0-------1-----------------------0---------------|


PRE-CHORUS

F         G    F                E
I will disband my heart in your hands


CHORUS

                 Am  F   C         G
Will you tell me see you soon in a while

        Dm   G           C            Em
When my eyes fade please give me your smile

         Am   F          C         G
And even dark nights are ending in dawn

            Dm      G            Am
You'll have time to cry when i'm gone

BRIDGE

    Dm         G        Em       G
                                  ______    _______________________________
                                 [1     ]  [2                              ]
C ---------1---------0--------0--------3------------------------------------|
F ------3-(3)--------1--------0--------3------------------------------------|
Bb----2------------2--------------------------------------------------------|
Eb--0------------2----------2--------0------0-0-0-0-0-0-0-0-0-0-0-0-0-0-0-0-|
G -------------0----------2--------2--------2-2-2-2-2-2-2-2-2-2-2-2-2-2-2-2-|
C ----------------------0--------3----------3-3-3-3-3-3-3-3-3-3-3-3-3-3-3-3-|

              [PLAY VERSE]
              [CHORUS]

OUTRO

            F       G            Dm
You'll have time to cry when i'm gone

            F       G            Am
You'll have time to cry when i'm gone


Everythin' that is not noted here you can figure out)
Please comment.
Enjoy!
Comments