Lord Belial - Forlorn In Silence Chords & Tabs

 

Forlorn In Silence Chords & Tabs

Lord Belial Chords & Tabs

Version: 1 Type: Tab 0 ratings
1 star 2 stars 3 stars 4 stars 5 stars
comments

Forlorn In Silence Tab

   
                       LORD BELIAL - FORLORN IN SILENCE
                      From the Album ENTER THE MOONLIGHT GATE
                        Copyright 1997, NO FASHION
                         Version 1.0 - FEBRUARY 2001

Transcribed by: Andreas Frizell

For Questions, Comments, Newest Version, or Corrections contact
Andreas Frizell: at andreasfrizell@hotmail.com

Check Out Death Warp, With More Transcriptions On It:
 http://tiger.towson.edu/~dalvis1

..  - palm mute          /  - slide up to
 \  - slide down to      ~  - vibrato
 h  - hammer on          b  - bend
 p  - pull off            Suffixes for bend
                          ph - pinch harmonic
                           f - full bend    h - half bend
*  - see comment           r - release      t - tap bend
X  - percussion mute       ~ - vibrato bend
@  - slight palm mute     () - ghost note, sustained note

Tune Gtr to D#

Forlorn in Silence

Riff A (2 times) 0:00-0:31
|----------------0------------------------------0--------------------|
|--0--1--0h1p0------0-------0---0--1--0h1p0--------0-------0---------|
|--------------2-------0h2-------------------2--------0h2------------| 
|--------------------------------------------------------------------| 
|--0----------------------------0------------------------------------|
|--------------------------------------------------------------------|
                                                                    
|----------------0------------------------------0--------------------|
|--0--1--0h1p0------0-------0---0--1--0h1p0--------0-------0---------|
|--------------2-------0h2-------------------2--------0h2------------| 
|--------------------------------------------------------------------| 
|--------------------------------------------------------------2-----|
|--1----------------------------3------------------------------------|
                                                                    
|----------------0---------------------------------------------------|
|--0--1--0h1p0------0-------0---0--1--0h1p0-----1--0-----------------|
|--------------2-------0h2-------------------2--------2--1-----------| 
|--------------------------------------------------------------------| 
|--0----------------------------0------------------------------------|
|--------------------------------------------------------------------|
                                                                    
|----------------0------------------------------0--------------------|
|--0--1--0h1p0------0-------0---0--1--0h1p0--------0-------0---------|
|--------------2-------0h2-------------------2--------0h2------------| 
|--------------------------------------------------------------------| 
|--------------------------------------------------------------2-----|
|--1----------------------------3------------------------------------|

Riff B 0:32-0:37
|-----------------------5--3--1--0-----------------------------------|
|--5---3---1---0-----------------------0--1--3--5--1--0h1p0----------|
|-----------------0--2--------------2------------------------2--1--2-|
|--------------------------------------------------------------------| 
|--3---2---0---2-----0--------------0-----------3-----2------------0-|
|--------------------------------------------------------------------|

Riff C (2 times) 0:38-0:51                                   p.h                      
|--------------------------------------------------0--1------12*-----|
|-----1--0--3--1--0--0h1p0----------------0--1--3------------12*-----|
|--2------------------------2--1--2----2-----------------1-----------| 
|--------------------------------------------------------------------| 
|--0------------------------------0----0-----------------------------|
|-----------3--------1--------------------------3--------0-----------|


Riff D 0:52-0:55
|--0-----------------------1--0h1p0----------------------------------|
|-----3--1--0--1--3--1--0------------3--1--0-------------------------|
|----------------------------------------------1---2-----------------|
|--------------------------0-----------------------------------------|
|--0---------------------------------------2-------0-----------------|
|--------------1-------------------------------0---------------------|

Riff E 0:56-1:22
|--/5--3h5p3--------3---------------3--------------------------------|
|-------------5--6-----6---3--5--6-----6--5h6p5--3--5--6--5----------|
|--------------------------------------------------------------------|Gtr I
|--------------------------------------------------------------------| 
|--------------------------------------------------------------------|
|--------------------------------------------------------------------|
|                                                                    |
|----------------1----------------------------------0----------------|
|----------------1----------------------------------0----------------|
|----------------2----------------------------------0----------------|Gtr II
|----------------3---------------0------------------2----------------|
|----------------3----------------------------------2----------------|
|----------------1----------------------------------0----------------|

                                                               p.h p.h
|--------------------------------------------------------------12*--12*--|
|--6--5h6p5--3-----3--5--3---5h6p5--3h5p3--1h3p1--0-------/10--12*-------|
|---------------5-----------------------------------0--2-----------------|Gtr I
|------------------------------------------------------------------------| 
|------------------------------------------------------------------------|
|------------------------------------------------------------------------|
|                                                                        |
|--1-------------------------0-------------------------------------------|
|--1-------------------------0-------------------------------------------|
|--2-------------------------0--------------------2----------------------|Gtr II
|--3--------------0----------2--------------------2----------------------|
|--3-------------------------2--------------------0----------------------|
|--1-------------------------0-------------------------------------------|
[ Tab from: http://www.guitartabs.cc/tabs/l/lord_belial/forlorn_in_silence_tab.html ]
(Riff E Cont.)
|-----3---------------3--------------------------------|
|--6-----6---3--5--6-----6--5h6p5--3--5--6--5----------|
|------------------------------------------------------|Gtr I
|------------------------------------------------------| 
|------------------------------------------------------|
|------------------------------------------------------|
|                                                      |
|--1----------------------------------0----------------|
|--1----------------------------------0----------------|
|--2----------------------------------0----------------|Gtr II
|--3---------------0------------------2----------------|
|--3----------------------------------2----------------|
|--1----------------------------------0----------------|
                                                               p.h p.h
|--------------------------------------------------------------12*--12*--|
|--6--5h6p5--3-----3--5--3---5h6p5--3h5p3--1h3p1--0-------/10--12*-------|
|---------------5-----------------------------------0--2-----------------|Gtr I
|------------------------------------------------------------------------| 
|-----------------------------------------------------------------------0|
|------------------------------------------------------------------------|
|                                                                        |
|--1-------------------------0-------------------------------------------|
|--1-------------------------0-------------------------------------------|
|--2-------------------------0--------------------2----------------------|Gtr II
|--3--------------0----------2--------------------2----------------------|
|--3-------------------------2--------------------0----------------------|
|--1-------------------------0-------------------------------------------|


Riff F (4 times) 1:23-2:00
|--------------------------------------------------------------------|
|--/10--------------8h10-----8--------------8------------------------|
|--------------------------------------------------------------------|Gtr I
|--------------------------------------------------------------------| 
|--------------------------------------------------------------------|
|--------------------------------------------------------------------|
|                                                                    |
|---------0-------------0--------------------------------------------|
|-----------1-------------1------------------------------------------|
|------2------2------2------2---------4-----------4------------------|Gtr II
|----2-------------2----------------5---5-------5---5----------------|
|--0-------------0----------------5-------5---5-------5--------------|
|-------------------------------3-----------3------------------------|


|--/8--------8--------7h8p7------7-----------------------------------|
|----------------------------10------9--6--5-------------------------|
|--------------------------------------------------------------------|Gtr I
|--------------------------------------------------------------------| 
|--------------------------------------------------------------------|
|--------------------------------------------------------------------|
|                                                                    |
|--------------------------------------------------------------------|
|---------------------------------0-----------0----------------------|
|--------2-----------2----------0---0-------0---0--------------------|Gtr II
|------3---3-------3---3------2-------2---2-------2------------------|
|----3-------3---3-------3--2-----------2----------------------------|
|--1-----------1-----------------------------------------------------|


Riff F ending 
|--5---3---1---0-----------------10---|
|------------------3----------10------|
|--------------------------10---------|
|--3---2---0-------0------------------|
|-------------------------------------|
|-------------------------------------|


Riff G (2 times) 2:01-2:30
|------12--10--8--------------8-------12--10--8--------------8-------|
|-----------------12--10--12---------------------12--10--12----------|
|--------------------------------------------------------------------|
|--------------------------------------------------------------------|
|--0-------------------------------0---------------------------------|
|--------------------------------------------------------------------|

|------12--10--8--------------8-------12--10--8--------------8-------|
|-----------------12--10--12---------------------12--10--12----------|
|--------------------------------------------------------------------|
|--------------------------------------------------------------------|
|--------------------------------------------------------------------|
|--0-------------------------------0---------------------------------|

|------12--10--8--------------8-------12--10--8--------------8-------|
|-----------------12--10--12---------------------12--10--12----------|
|--------------------------------------------------------------------|
|--------------------------------------------------------------------|
|--8-------------------------------8---------------------------------|
|--------------------------------------------------------------------|

|------12--10--8--------------8-------12--10--8--------------8-------|
|-----------------12--10--12---------------------12--10--12----------|
|--0-------------------------------0---------------------------------|
|--------------------------------------------------------------------|
|--------------------------------------------------------------------|
|--------------------------------------------------------------------|


Riff H (2 times) 2:31-2:45
|-----5-3-----------------5-3---------------5-3---------------5-3-------------|
|---------6-5-3-5-6-----------6-5-3-5-6---------6-5-3-5-6----------6-5-3-5-6--|
|-----------------------------------------------------------------------------|
|----------------------------------------------------------0------------------|
|--0------------------2------------------3------------------------------------|
|-----------------------------------------------------------------------------|


Riff D 2:46-2:49


Riff I 2:50-3:01
|---------------------------------------------------0h1--0---0---|
|--------0-----1-----3-----/5----3-----1-----0---3---------------|
|--2--------0-----0-----0-----0-----0-----0----------------------|
|-----2----------------------------------------------------------|
|--0-----2-----3-----2-----/3----2-----0---------2---------------|
|--------------------------------------------------------0-------|

(Riff I cont)
|----------------------------------------------------------------|
|--6------5------3-----1--0--1--3--1--0h1p0----------------------|
|-----0------0------0------------------------2---1---------------|
|----------------------------------------------------------------|
|--5------3------2--------------------2--------------------------|
|----------------------------1-------------------0---------------|


Riff J.1 3:02-3:08
|------------------------------------------------------------------------|
|-----------1-0h1p0-------------3-1-0----0--------0------0-------3-1-0---|
|--2----2-----------2-------2---------2----2--------2------0-----------0-|
|--2--2---2-----------2---2---2--------------2--------2------2-----------|
|--0--------------------0--------------------------------2-----2---------|
|----------------------------------------1------1------------------------|

Riff J.2 (3 times) 3:09-3:29
|------------------------------------------------------------------------|
|----------1-0h1p0-------------3-1-0----0--------0------0-------3-1-0----|
|------2-----------2-------2---------2----2--------2------0-----------0--|
|----2---2-----------2---2---2--------------2--------2------2------------|
|--0-------------------0--------------------------------2-----2----------|
|---------------------------------------1------1-------------------------|


Riff D 3:30-3:33

Outro 3:34-3:48                                           p.h    p.h
|-----------------12--10--8h10p8--7----\4-----------0-----12*-----7*-----0--|
|-------/10---9---------------------------------0-----0------12*----7*---1--|
|--2----------------------------------------------2----------------------2--|
|--2------------------------------------------2--------------------------2--|
|--0----------------------------------------0----------------------------0--|
|------------------------------------------------------------------------0--|

Check Out Death Warp, With More Transcriptions On It:
 http://tiger.towson.edu/~dalvis1
Comments