Looser Kids - Yearbook Chords & Tabs

 

Yearbook Chords & Tabs

Looser Kids Chords & Tabs

Version: 1 Type: Tab 0 ratings
1 star 2 stars 3 stars 4 stars 5 stars
comments

Yearbook Tab

------------------------------------------------------------------------
          The Looser Kids, punk from AZ - Yearbook (Jill Song)
------------------------------------------------------------------------

By: Blake Harding
Lyrics By: Blake Harding
Visit the looser kids website at http://www.looserkids.cjb.net
Please Note: This materiel is copyrighted under the united states 
goverment and can not be reproduced or any thing at all, got it!

This is a fairly easy song... Lyrics at the Bottom
Tempo: 190
Downstroke and Palm Mute all but solo and intro.
Distortion: 7
Use pickup at neck or use Humbucker, Tuning is Standard.


INTRO: 2x
e|---------------------------------------------|
B|---------------------------------------------|
G|---------------------------------------------|
D|------------9-11---99---h9---------0-0-2-----|
A|-------99---------------------0-0------------|
E|--77-------------------------------------1-1-|
 

VERSE AND CHORUS 1:
e|----------------------------------------------------------------------|
B|----------------------------------------------------------------------|
G|--5-5-5-5-5-5-5-5--7-7-7-7-7-7-7-7------------------------------------|
D|--5-5-5-5-5-5-5-5--7-7-7-7-7-7-7-7--5-5-5-5-5-5-5-5--2-2-2-2-2-2-2-2--|
A|--3-3-3-3-3-3-3-3--5-5-5-5-5-5-5-5--5-5-5-5-5-5-5-5--2-2-2-2-2-2-2-2--|
E|------------------------------------3-3-3-3-3-3-3-3--0-0-0-0-0-0-0-0--|
      
e|------------------------------------|
B|------------------------------------|
G|--5-5-5-5-5-5-5-5--7-7-7-7-7-7-5-4--|
D|--5-5-5-5-5-5-5-5--7-7-7-7-7-7-5-4--|
A|--3-3-3-3-3-3-3-3--5-5-5-5-5-5-3-2--|
E|------------------------------------|


SOLO
e|----------------------------------------------------------|
B|--5-------5-5-------5-5---5-5-------5-5-------------------|
G|----5---5-----5---5-----5-----5---5-----------------------|
D|------5---------5---------------5-------------------------|
A|----------------------------------------------------------|
E|----------------------------------------------------------|
                                                
[ Tab from: http://www.guitartabs.cc/tabs/l/looser_kids/yearbook_tab.html ]
VERSE AND CHORUS 2:
e|----------------------------------------------------------|
B|----------------------------------------------------------|
G|--55555555------------55555555----------------------------|
D|--55555555--55555555--55555555----33333333----------------|
A|--33333333--55555555--33333333----33333333----------------|
E|------------33333333--------------11111111----------------|

e|------------------------------------|
B|------------------------------------|
G|--5-5-5-5-5-5-5-5--7-7-7-7-7-7-5-4--|
D|--5-5-5-5-5-5-5-5--7-7-7-7-7-7-5-4--|
A|--3-3-3-3-3-3-3-3--5-5-5-5-5-5-3-2--|
E|------------------------------------|
 

                                               
saw you in your yearbook picture
love at first sight, had to meet ya
maybe not obsession, but a feeling close to home
started talking in the chat rooms
or a phone call when the nerve rose
seems to me we were so close, but you're so far away

and all the guys would tell me everyway to win her heart
so i began to do it, but still dunno where to start
please someone make the first move or i'm gonna lose my mind
looking at your pretty face ill beat my head against my yearbook

chorus
cause jills's the kinda girl who makes me feel
like the rainy day outside my window ain't for real
(jill) i gotta blow up doll and i named her after you
cause when i see your pic i feel like i'm new all over again

days went by i got to know ya
thought of good times i could show ya
everything about you so perfect in every way
your pretty eyes, your little smile
i was told to wait a while
but impatience got me and ya sent me on my way

in everything you did i saw a little bit of me
but once upon a time's the only way we are meant to be
like children on the playground i'm afraid to talk to you
watching every move you make ill drop the petals on my yearbook

chorus

and than she finally called me
and then we both hung out
they say i moved to fast
now look at me i'm on the outs
stabbed with the nice guy knife
i messes things up again
i can't come out to play, i'm crying in my yearbook

and all the guys would tell me everyway to win her heart
so i began to do it, but still dunno where to start
please someone make the first move or i'm gonna lose my mind
looking at your pretty face ill beat my head against my yearbook

chorus
(she makes me feel like i'm new all over again)
Comments