Loonie - Pilosopo Chords & Tabs

 

Pilosopo Chords & Tabs

Loonie Chords & Tabs

Version: 1 Type: Bass Tab 0 ratings
1 star 2 stars 3 stars 4 stars 5 stars
comments

Pilosopo Bass Tab

Song: Pilosopo (feat. Smugglaz)(Tower of Doom Sessions)
Artist: Loonie
Tabbed By : ChaelMi
e-mail: ikel_22@yahoo.com

Tuning: BEADG

(00:00) Intro
|-----------|-----------|---------------|
|-----------|-----------|---------------|
|-----------|-----------|-------------8-|
|----1086---|----8610---|-66-66-66-66---|
|-6-6-----6-|-6-6-----6-|---------------|3x

(00:39)
|-----------------|
|-----------------|
|-----------------|
|--------------5--|
|-5---7-10-3----7-|2x

(00:58) Verse
|--------------------------|--------------------------|
|-------7-----------7------|-------11----------11-11--|
|-55-005-5--055-005---7777-|-99-009--9--099-009--9--9-|
|--------------------------|--------------------------|
|--------------------------|--------------------------|4x
[ Tab from: http://www.guitartabs.cc/tabs/l/loonie/pilosopo_btab.html ]
(01:37) Pre Chorus
|--------------------------------------------------------|
|---------------------77---------------------------7-----|
|-7777-99-1212-555-55----999-0-7777-99-1212-555-55--9-7\-|
|--------------------------------------------------------|
|--------------------------------------------------------|

(01:55) Chorus
|-------------------|--------------------|
|-------------------|---------------7----|
|-------------------|-----------------97-|
|---------------5---|--------------------|
|-5---7-10-3--3/--7-|-5---7-10-3--3/-----|

(02:14) *Repeat Verse
(02:53) *Repeat Pre Chorus
(03:12) *Repeat Chorus

(03:31) *Repeat Verse
(04:10) *Repeat Pre Chorus
(04:29) *Repeat Chorus

(04:47) *Repeat Verse

(05:25)
|-------------|
|-------------|
|-5---7-9---7-|
|-------------|
|-------------|2x

| /  slide up
| \  slide down

Please rate and comment!
Suggestions are welcome.

//4 strings lang gamit ni sir Tuts pero BEAD ang gamit nya.
Comments