Longpigs - She Said Chords & Tabs

 

She Said Chords & Tabs

Longpigs Chords & Tabs

Version: 2 Type: Bass Tab 0 ratings
1 star 2 stars 3 stars 4 stars 5 stars
comments

She Said Bass Tab

Date: Sun, 30 Nov 1997 
From: LILY CHEN 

'She Said'
by the Longpigs
Bass Tab

Album: The Sun is Often Out 1996
Words by Crispin Hunt
Transcribed By Lily Chen 
"All Original Work"
~~~~~~~~~~~~~~~~~~~~~~~~~~~
  /---\  represents a tie
~~~~~~~~~~~~~~~~~~~~~~~~~~~

Intro:  rest 4 measures then:

                 /---\
G:-----------------|-----------------|-----------------|-----------------|
D:-------------5-3-|-3---------------|-----3-------5-3-|-3---------------|
A:-----------------|----------1-3-3--|-----------------|----------1-4-4--|
E:-1-1-1-1-1-1-----|-----------------|-1-1---1-1-1-----|-----------------|

G:-----------------|-----------------|-----------------|-----------------|
D:-----3-------5-3-|-3-3-3-----------|-----3-------5-3-|-3---------------|
A:-----------------|---------1-3-3-3-|-----------------|---------5-4-4-4-|
E:-1-1---1-1-1-----|-----------------|-1-1---1-1-1-----|-----------------|


Verse1:
G:-----------------|-----------------|-----------------|-----------------|
D:-----------------|-----------------|-----3-----------|-----------------|
A:-------------3-1-|-1-1---1-1-1-1-1-|-------------3-1-|-1-1---1-1-1-1-1-|
E:-1-1-1-1-1-1-----|-----1-----------|-1-1---1-1-1-----|-----1-----------|

G:-----------------|-----------------|-----------------|-----------------|
D:-----3-----------|-----------------|-----3-----------|-----------------|
A:-------------3-1-|-1-1---1-4-4-4-4-|-------------3-1-|-1-1---1-1-1-3---|
E:-1-1---1-1-1-----|-----1-----------|-1-1---1-1-1-----|-----1-----------|


PreChorus:
G:-----------------|-----------------|-----------------|-----------------|
D:-----------------|-------3-3-------|-----------------|-----5-----------|
A:-1-1-----1-1-1-1-|-----------------|-1-1-----1-1-----|-----------3-3-3-|
E:-------1---------|-1-1-------1-1-1-|-------1-----1-2-|-3-3---3---------|


Chorus:          /---\
G:-----------------|-----------------|-----------------|-----------------|
D:-------------5-3-|-3---------------|-----3-------5-3-|-3---------------|
A:-----------------|----------1-3-3--|-----------------|---------5-4-4-4-|
E:-1-1-1-1-1-1-----|-----------------|-1-1---1-1-1-----|-----------------|


Verse2:
G:-----------------|-----------------|-----------------|-----------------|
D:-----------------|-----------------|-----3-----------|-------------3-5-|
A:-------------3-1-|-1-1---1-1-1-1-1-|-------------3-1-|-1-1-1-1-2-4-----|
E:-1-1-1-1-1-1-----|-----1-----------|-1-1---1-1-1-----|-----------------|

G:-----------------|-----------------|-----------------|-----------------|
D:-----------------|---------------3-|-----3-----------|-----------------|
A:-1-----------3-1-|-1-1---1-1-1-4---|-------------3-1-|-1-1-1-1-1-1-1---|
E:---1-1-1-1-1-----|-----1-----------|-1-1---1-1-1-----|-----------------|


PreChorus:
G:-----------------|-----------------|-----------------|-----------------|
D:-----------------|-------3-3-------|-----------------|-----5-----------|
A:-1-1-----1-1-1-1-|-----------------|-1-1-----1-1-----|-----------3-3-3-|
E:-------1---------|-1-1-------1-1-1-|-------1-----1-2-|-3-3---3---------|

[ Tab from: http://www.guitartabs.cc/tabs/l/longpigs/she_said_btab_ver_2.html ]
Chorus:          /---\
G:-----------------|-----------------|-----------------|-----------------|
D:-------------5-3-|-3---------------|-----3-------5-3-|-3---------------|
A:-----------------|----------1-3-3--|-----------------|---------5-4-4-4-|
E:-1-1-1-1-1-1-----|-----------------|-1-1---1-1-1-----|-----------------|


Riff1:
G:-----------------|-----------------|-----------------|-------------|---------|
D:-----------------|-----------------|-----------------|-------------|---------|
A:-1-1-1-1---1-1-1-|-3-3-3-3-3---3-3-|-----------------|-------3--x--|---------|
E:---------1-------|-----------3-----|-3-3-3-3-3-3-3---|-3--x--------|-1-------|


Chorus:          /---\
G:-----------------|-----------------|-----------------|-----------------|
D:-------------5-3-|-3---------------|-----3-------5-3-|-3---------------|
A:-----------------|----------1-3-3--|-----------------|---------5-4-4-4-|
E:-1-1-1-1-1-1-----|-----------------|-1-1---1-1-1-----|-----------------|


Verse3:
G:-----------------|-----------------|-----------------|-----------------|
D:-----------------|-----------------|-----3-----------|-------------3-5-|
A:-------------3-1-|-1-1---1-1-1-1-1-|-------------3-1-|-1-1-1-1-2-4-----|
E:-1-1-1-1-1-1-----|-----1-----------|-1-1---1-1-1-----|-----------------|

G:-----------------|-----------------|-----------------|-----------------|
D:-----------------|---------------3-|-----3-----------|-----------------|
A:-1-----------3-1-|-1-1---1-1-1-4---|-------------3-1-|-1-1-1-1-5-4-4-4-|
E:---1-1-1-1-1-----|-----1-----------|-1-1---1-1-1-----|-----------------|


PreChorus:
G:-----------------|-----------------|-----------------|-----------------|
D:-----------------|-------3-3-------|-----------------|-----5-----------|
A:-1-1-----1-1-1-1-|-----------------|-1-1-----1-1-----|-----------3-3-3-|
E:-------1---------|-1-1-------1-1-1-|-------1-----1-2-|-3-3---3---------|


Riff2:
G:---------3-------|        |-3-------|     
D:-------2-----2---|   x 6  |---------|    
A:-1---------------|        |---------|   
E:-----------------|        |---------|   


Chorus:          /---\
G:-----------------|-----------------|-----------------|-----------------|
D:-------------5-3-|-3---------------|-----3-------5-3-|-3---------------|
A:-----------------|----------1-3-3--|-----------------|---------5-4-4-4-|
E:-1-1-1-1-1-1-----|-----------------|-1-1---1-1-1-----|-----------------|


Chorus:          /---\
G:-----------------|-----------------|-----------------|-----------------|
D:-------------5-3-|-3---------------|-----3-------5-3-|-3---------------|
A:-----------------|----------1-3-3--|-----------------|---------5-4-4-4-|
E:-1-1-1-1-1-1-----|-----------------|-1-1---1-1-1-----|-----------------|

                               
Alternate notes A# and G# for two bars, then:


Riff2:
G:------------------|  
D:------------------|  
A:------------------|  
E:-10---8---6-------| and hold the last note


THANK you previous BTAB transcribers for influencing me to do this...
~~~~~~~~~~~~~~~~~~~~~~~~~~~~~~~~~~~~~~~~~~~~~~~~~~~~~~~~~~~~~
Home Page: http://www.geocities.com/Vienna/1871
Blur Page: http://www.geocities.com/SunsetStrip/Satge/3871
Email: lilybud@bigfoot.com
~~~~~~~~~~~~~~~~~~~~~~~~~~~~~~~~~~~~~~~~~~~~~~~~~~~~~~~~~~~~~
If anybody has more info on the band Longpigs please contact me!
I can't seem to take this album out of my CD player...
Comments