Longpigs - I Lied I Love You Chords & Tabs

 

I Lied I Love You Chords & Tabs

Longpigs Chords & Tabs

Version: 1 Type: Tab 0 ratings
1 star 2 stars 3 stars 4 stars 5 stars
comments

I Lied I Love You Tab

   
-------------------------------------------------------------------------------
			     I Lied I Love You - Longpigs
-------------------------------------------------------------------------------
Tabbed by: bendude
Email: bendude@ilovejesus.net

Tuning:EADGBE

First tab so give me a break if it's crap. I tried my best!
I tabbed out the intro and random solo cos it's a helluva lot more interesting with that as well.

e|----------------------------------------------------------------------12---|
B|----13----12-------------------------------------------------------12------|
G|----------------14----13----13p11--11--11--11---11-14p11--11--11-----------|
D|----------------14----14----14---14--14--14--14----14---14--14--14---------|
A|---------------------------------------------------------------------------|
E|-12----12----12----12----12------------------12----------------------------|

	    F#m
i lied i love you
	Am	
the screw that nailed the final whore it comes
	E
as simple as a t.v. plot but not
   B7
before they killed the villain off

 
	    F#m
i lied i love you
	Am
i'm buying everything i'm sold and taught
	E	
like angels dipping into sin and love
	  F#m				 	 B7
'cause you're the queen and i'm the king


		  F#m
dark is the moonlight
		  Am		E
that hands around your eyes
		B7
i see your light
		 F#m
i need your light to keep me blinded
   B7			   Am		E
i don't care what's going on 


	    F#m
i lied i love you
    Am
to start the party with a bang but
	E	
it's exploded in my about face of yours
     B7				  B7(mild distortion)
the cup of love you must have laced tighter
		A		  Am
with your heart strings
			  E
and how the cliché stings
            B7
i see your light
		 F#m
i need your light to keep me blinded
   B7			    Am	 E
i don't care what's going on

REFRAIN
(No Chords, Fill 2nd Time)
how can i be sure how can i be sure 
		   E
how can i be sure how can i be sure

love the only war
[ Tab from: http://www.guitartabs.cc/tabs/l/longpigs/i_lied_i_love_you_tab.html ]
love the only law
		    A
keep me seeing red

make me understand

i couldn't put it down

burns your greedy hands

		  B7
burn my eyes out

so keep me blinded
   F#m		   Am		E
i don't care what's going on

RANDOM SOLO BIT 1

e|---------------------------------------------------------------------------|
B|---------------------------------------------------------------------------|
G|-----------------------------13-11----11-13--------------------------------|
D|-------------------13-14--14-------14----14--------------------13-14--14---|
A|----11----12----14------------------------------11----12----14-------------|
E|-12----12----12------------------------------12----12----12----------------|

e|------------------------|
B|------------------------|
G|-13-11-------11---------|
D|-------14-13----14------|
A|------------------------|
E|------------------------|


	E
the screw that nailed final whore
    F#m					    B7
but not before they killed the villain off
			    F#m
bigger than the moonlight
		   Am		  E
that crowds around your eyes 
		 B7
i see you light
		 F#m
i need your light to keep me blinded
B7			   Am		E
i don't care what's going on 

REFRAIN

FILL

E|-0-0-0-0-0-0-0-0-0-0-0-0-0-0-0-0|
B|--------------------------------|
G|--------------------------------|
D|--------------------------------|
A|--------------------------------|
E|--------------------------------|

REFRAIN

FILL

RANDOM SOLO BIT 2

e|--------------------------------------|
B|-16-16-16-16~17~16-16-16-16-----------|
G|----------------------------14-14-14--|
D|--------------------------------------|
A|--------------------------------------|
E|--------------------------------------|

	  B7
my eyes out

so keep me blinded
   F#m		   Am		E
i don't care what's going on


And that's about it
let me know what you think

BEN

===============================================================================
| /  slide up
| \  slide down
| h  hammer-on
| p  pull-off
| ~  vibrato
| +  harmonic
| x  Mute note
===============================================================================
Comments