Long Beach Dub Allstars - Like A Dog Chords & Tabs

 

Like A Dog Chords & Tabs

Long Beach Dub Allstars Chords & Tabs

Version: 1 Type: Bass Tab 0 ratings
1 star 2 stars 3 stars 4 stars 5 stars
comments

Like A Dog Bass Tab

Artist: Long Beach Dub Allstars
Song: Like A Dog
Album: Right Back
Tabbed By: Jason S.  jsslapnpopnfunk@aol.com
 
  Part 1             Part 2           Chorus:
G----------------|---------------|--------------------------|
D----------------|-------7-7-7---|------------------12------|
A-------7-7-7----|--5----------8-|---------------12---12----|
E--5----------8--|---------------|-7----7--9--10------------|
[ Tab from: http://www.guitartabs.cc/tabs/l/long_beach_dub_allstars/like_a_dog_btab.html ]
Breakdown Part 1:  Breakdown part 2:
G----------------|---14--14--(12)--|
D---14--14--(12)-|-----------------|
A----------------|-----------------|
E----------------|-----------------|

Part 1 12 times
Part 2 twice
Part 1 twice
Chorus once
Part 1 12 times
Part 2 twice
Part 1 twice
Chorus
Part 1 14 times
Part 2 twice
Part 1 twice
Chorus
Part 1 twice
Breakdown part 1  16 times
Breakdown part 2  4 times
Breakdown part 1  4 times
Chorus
Breakdown part 1  4 times
PHEW!!!

Comments