Lonelyland - Big Blue Sea Chords & Tabs

 

Big Blue Sea Chords & Tabs

Lonelyland Chords & Tabs

Version: 1 Type: Bass Tab 0 ratings
1 star 2 stars 3 stars 4 stars 5 stars
comments

Big Blue Sea Bass Tab

Big Blue Sea- Bob Schneider
Comes from the album Lonelyland 


This is how most of the song is...

G----------------------------4-5--
D---------------------------------
A------------------------3-3------
E-3---3--/7--7---0-0---0----------


Except for this part of the chorus...


	Bottom of the big...
[ Tab from: http://www.guitartabs.cc/tabs/l/lonelyland/big_blue_sea_btab.html ]
G---------------------------
D---------------------------
A--------------3---3-3--5-5-
E-3---3--/7-7---------------


Bob is the hottest thing in town (Austin, TX). If you have a chance to 
check him out, I highly recommend that you so. E-mail me if you want me 
to tell you where an when.

From: michael crowder 

Comments