Lonely Kings - Never Chords & Tabs

 

Never Chords & Tabs

Lonely Kings Chords & Tabs

Version: 1 Type: Tab 0 ratings
1 star 2 stars 3 stars 4 stars 5 stars
comments

Never Tab

/=slide ;=let ring


e----------------------------------------------------------------------------|
b------0-------0--------0-------0--------------------------------------------|
g----------------------------------------------------------------------------|
d----6---6---6---6----6---6---6---6------------------------------------------|
a--4-------0--------7-------7------------------------------------------------|
e----------------------------------------------------------------------------|


e-----------------------------------0-0-0-0-0-0-0----------------------------|
b-----------------------------------0-0-0-0-0-0-0----------------------------|
g-----------------------------------1-1-1-1-1-1-1----------------------------|
d--6-6-6-6--6-6-6-6-6-6-6-----------2-2-2-2-2-2-2----------------------------|
a--4-4-4-4--0-0-0-0-0-0-0--2-2-2-2--2-2-2-2-2-2-2----------------------------|
e--------------------------0-0-0-0-------------------------------------------|

e-----------------------------------------------------------------------------|
b-----------------------------------------------------------------------------|
g--6/8-8-8-8/9-9-9-9/11-11-11-11/9-9-9-9/8-8-8-8/6-6-6-6----------------------|
d-----------------------------------------------------------------------------|
a--4/6-6-6-6/7-7-7-7/9--9--9--9/-7-7-7-7/6-6-6-6/4-4-4-4----------------------|
e-----------------------------------------------------------------------------|


e----------------------------------------------------------------------------|
b----------------------------------------------------------------------------|
g----------------------------------------------------------------------------|
d--6;-----------6;-----------------------------------------------------------|
a--4;-----------0;-----------2;----------------------------------------------|
e----------------------------0;----------------------------------------------|

[ Tab from: http://www.guitartabs.cc/tabs/l/lonely_kings/never_tab.html ]
e----------------------------------------------------------------------------|
b----------------------------------------------------------------------------|
g----------------------------------------------------------------------------|
d--9-9-9-9-9-9-9-9-9-9-9-9-9-9-9-9--6-6-6-6-6-6-6-6-6-6-6-6-6-6-6-6--4-4-4-4-|
a--7-7-7-7-7-7-7-7-7-7-7-7-7-7-7-7--4-4-4-4-4-4-4-4-4-4-4-4-4-4-4-4--2-2-2-2-|
e----------------------------------------------------------------------------|

e----------------------------------------------------------------------------|
b----------------------------------------------------------------------------|
g----------------------------------------------------------------------------|
d--4-4-4-4-4-4-4-4-4-4-4-4--2-2-2-2-2-2-2-2-2-2-2-2-2-2-2-2------------------|
a--2-2-2-2-2-2-2-2-2-2-2-2--0-0-0-0-0-0-0-0-0-0-0-0-0-0-0-0------------------|
e----------------------------------------------------------------------------|


e--0-0-0-0-0-0-0-0--0-0-0-0-0-0-0-0--0-0-0-0-0-0-0-0-0-0-0-0-0-0-0-0--0-0-0-0-|
b--2-2-2-2-2-2-2-2--4-4-4-4-4-4-4-4--5-5-5-5-5-5-5-5-5-5-5-5-5-5-5-5--2-2-2-2-|
g-----------------------------------------------------------------------------|
d-----------------------------------------------------------------------------|
a-----------------------------------------------------------------------------|
e-----------------------------------------------------------------------------|

e--0-0-0-0--0-0-0-0-0-0-0-0--0-0-0-0-0--0-0-0--0-0-0-0-0-0-0-0--0-0-0-0-0-0--|
b--2-2-2-2--4-4-4-4-4-4-4-4--5-5-5-5-5--7-7-7--9-9-9-9-9-9-9-9--4-4-4-4-4-4--|
g----------------------------------------------------------------------------|
d----------------------------------------------------------------------------|
a----------------------------------------------------------------------------|
e----------------------------------------------------------------------------|


e--0-0--0-0-0-0-0-0-0-0--0-0-0-0-0-0-0-0-0-0-0-0-0-0-0-0--0-0-0-0-0-0-0-0----|
b--4-4--2-2-2-2-2-2-2-2--0-0-0-0-0-0-0-0-0-0-0-0-0-0-0-0--2-2-2-2-2-2-2-2----|
g----------------------------------------------------------------------------|
d----------------------------------------------------------------------------|
a----------------------------------------------------------------------------|
e----------------------------------------------------------------------------|


e--0-0-0-0-0-0-0-0--0-0-0-0-0-0-0-0-0-0-0-0-0-0-0-0--------------------------|
b--4-4-4-4-4-4-4-4--5-5-5-5-5-5-5-5-5-5-5-5-5-5-5-5--------------------------|
g----------------------------------------------------------------------------|
d----------------------------------------------------------------------------|
a----------------------------------------------------------------------------|
e----------------------------------------------------------------------------|
Comments