Loman - American Ruse Chords & Tabs

 

American Ruse Chords & Tabs

Loman Chords & Tabs

Version: 2 Type: Tab 0 ratings
1 star 2 stars 3 stars 4 stars 5 stars
comments

American Ruse Tab

"The American Ruse"
Loman
(originally by The MC5)

Intro
b: ------------------------|
b: ------------------------|
g: ------------------------|
d: --7--9--10^----10-------|
a: --7--9--10^----10-------|
d: --7--9--10^----10-------|

Verse
b: -------------------------------------|
b: -------------------------------------|
g: -------------------------------------|(x6)
d: --6666--6--66--6666---8-8------------|
a: --6666--6--66--6666---6-6------------|
d: --6666--6--66--6666------------------|

Pre-chorus
b: -------------------|
b: -------------------|
g: -------------------|(x4)
d: -------------------|
a: --6^---------------|
d: ---------6-7-8-----|

Chorus
b: ---------------------------------------------------------------|
b: ---------------------------------------------------------------|
g: ---------------------------------------------------------------|
d: --9999999999999999-/-11-11-11-11-\-8-8-8-8-/-14-14-14-14-14----|
d: --9999999999999999-/-11-11-11-11-\-8-8-8-8-/-14-14-14-14-14----|
d: --9999999999999999-/-11-11-11-11-\-8-8-8-8-/-14-14-14-14-14----|
???? P.M.....................................
??????????????????????? (gradually lighten)

Verse (x6)
Pre-chorus (x4)
Chorus
Verse (x2)

Bridge
b: --------------------|
b: --------------------|
g: --------------------|(x3)
d: --1--1-----5--5-----|
a: --1--1-----3--3-----|
d: --1--1--------------|

b: ----------------------------------------------|
b: ----------------------------------------------|
g: ----------------------------------------------|
d: --1--1----6-7-8-9--10-10-10-10-10-10-10-10----|
a: --1--1----4-5-6-7--8--8--8--8--8--8--8--8-----|
d: --1--1----------------------------------------|
[ Tab from: http://www.guitartabs.cc/tabs/l/loman/american_ruse_tab_ver_2.html ]
Solo
b: -------------------------------------------------------------|
b: -------------------------------------------------------------|
g: -------------------------------------------------------------|? (x4)
d: -------------------------------------------------------------|
a: -------------------------------------------------------------|
d: --17^/\/\/\/\/\--17^/\/\/\/\/\--17^/\/\/\/\/\--17/\/\/\/\/\--|
?????????????? (bend more each time)

b: ------12------12--12-------12------12--12---------14------14--14---------15------15--15---|
b: --12----12------12-----12----12------12-------14----14------14-------15----15------15-----|
g: ------------------------------------------------------------------------------------------| (x2)
d: ------------------------------------------------------------------------------------------|
a: ------------------------------------------------------------------------------------------|
d: ------------------------------------------------------------------------------------------|

b: ------15------15--15--------15------15--15--|
b: --13----13------13------13----13------13----|
g: --------------------------------------------|(x2)
d: --------------------------------------------|
a: --------------------------------------------|
d: --------------------------------------------|

b: ------17------17--17--------17------17--17-|
b: --15----15------15------15----15------15---|

b: ------18------18--18--------18------18--18-|
b: --16----16------16------16----16------16---|

b: ------19------19--19--------19------19--19-|
b: --17----17------17------17----17------17---|

b: ------20------20--20--------20------20--20-|
b: --18----18------18------18----18------18---|

b: ------21------21--21----22-|
b: --19----19------19------20-|

Verse (x6)
Pre-chorus (x4)
Chorus

Outro
b: ------------------------------|
b: ----------------------8-8-----|
g: --88--8--888--88--8---6-6-----|   (x6)
d: --66--6--666--66--6-----------|
a: ------------------------------|
d: ------------------------------|

b: -----------------------------------|
b: -----------------------------------|
g: -----------------------------------|
d: --7-9-10---7-9-10---7-9-10---10-6--|
a: --7-9-10---7-9-10---7-9-10---10-6--|
d: --7-9-10---7-9-10---7-9-10---10-6--|
Comments