Lola Ray - Slave Chords & Tabs

 

Slave Chords & Tabs

Lola Ray Chords & Tabs

Version: 1 Type: Tab 0 ratings
1 star 2 stars 3 stars 4 stars 5 stars
comments

Slave Tab

Lola Ray is a Rock band with a punk flare.  Their new debut album is called
"I Don't Know You".  Check them out at www.lolaray.com

----------------------------------------------------------------------------
			     Slave - Lola Ray
----------------------------------------------------------------------------
Tabbed by: Nate Green


Okay, because it is absolutely impossible to find Lola Ray tabs on the internet,
I thought I would try to do a little bit, because they are an awesome band.
Also I am allowing anyone to copy this tab, and add to it, or whatever.
I'm 90% sure this is correct. 

Tuning:Standard
[ Tab from: http://www.guitartabs.cc/tabs/l/lola_ray/slave_tab.html ]
Play moderately fast, just play along with the song
e|-------------------------------------------------------------------------|
B|------------------------------------------------------------3------------|
G|----7---7-----7--------5---5-----4-----4--5-5-4-----4-----------0-----0--|
D|--5---5---5-5---5----4---4---4-4---4-4----4-4---4-4---4---2---0---0-0---0|
A|7------------------5------------------------------------3----------------|
E|-------------------------------------------------------------------------|

Play that same thing again for the verses.  That's about it, if I figure out more I'll post it.


============================================================================
Comments