Local H - Manipulator Chords & Tabs

 

Manipulator Chords & Tabs

Local H Chords & Tabs

Version: 2 Type: Tab 0 ratings
1 star 2 stars 3 stars 4 stars 5 stars
comments

Manipulator Tab

Regular tuning

/ = Slide
pm - Palm Mute

Intro

   pm....         pm......
e|----------------------------------|
b|----------------------------------| repeat a few times
g|----------------------------------|
d|-9-9-9-9--9///3--3-3-3-3--3///9---|
a|-9-9-9-9--9///3--3-3-3-3--3///9---|
E|-7-7-7-7---------1-1-1-1----------|

[ Tab from: http://www.guitartabs.cc/tabs/l/local_h/manipulator_tab_ver_2.html ]
Verse
  PM.....................*.....
e|-------------------------------------------|
b|-------------------------------------------| * shows the part where
g|-------------------------------------------|  the verse ends and the
d|---------9///3---------3///9---------------|  chorus begins. When it
a|---------9///3---------3///9---------------|  reach * hit and f-chord
E|-7-7-7-7-------1-1-1-1---------------------|  without PM

Chorus
e|----------------------------------------|
b|----------------------------------------| Just keep on repeating
g|----------------------------------------|
d|-9--9-9///3--3-3///9--9-9///3--3-3////--|
a|-9--9-9///3--3-3///9--9-9///3--3-3////--|
E|-7--7-7///1--1-1///7--7-7///1--1-1////--|


Bass line throughout the whole song
e|-------------------------------------|
b|-------------------------------------|
g|-------------------------------------|
d|-------------------------------------|
a|-------------------------------------|
E|-1/////7--7/////1--1/////7--7/////1--|
Comments