Local H - Manifest Destiny Pt Chords & Tabs

 

Manifest Destiny Pt Chords & Tabs

Local H Chords & Tabs

Version: 2 Type: Tab 0 ratings
1 star 2 stars 3 stars 4 stars 5 stars
comments

Manifest Destiny Pt Tab

   
1\2 Step down

~ = Let ring
/ = Slide
b = Bend

Intro (bass).Play twice
g|----------------------------------------------------------------------
d|----------------------------------------------------------------------
a|----------------------------------------------------------------------
E|-0-0-0-0-0-0-0-00-5-5-5-5-5-5-5-55-8-8-8-8-8-8-8-88-7-7-7-77-3-3-3-33-

Enter little solo thingy. 
e|---------------------------------------------------------------|
b|----------------------------------15-17-15--12-15-12-10--------|
g|----12-14-16~~~~-------14-16~~~~------------------------12~~~--|
d|-14-----------------14-----------------------------------------|
a|-----------------12--------------------------------------------|
E|---------------------------------------------------------------|

e|---------------------------------------------------------------|
b|----------------------------------15-15-17-15-12--15-12-10-----|
g|----12-14-16~~~~-------14-16~~~~---------------------------9~~-|
d|-14-----------------14-----------------------------------------|
a|-----------------12--------------------------------------------|
E|---------------------------------------------------------------|

Then comes the Chords when Scott starts singing

e|------------------------------------------------------------
b|------------------------------------------------------------
g|------------------------------------------------------------
d|-2-2-2-2-2-2-2-22-7-7-7-7-7-7-7-77-10-10-10-10-10-10-1010---
a|-2-2-2-2-2-2-2-22-7-7-7-7-7-7-7-77-10-10-10-10-10-10-1010---
E|-0-0-0-0-0-0-0-00-5-5-5-5-5-5-5-55--8--8--8--8--8--8--8-8---

 ---------------------------|
 ---------------------------|
 ---------------------------|
 -9-9-9-99-5-5-5-55---------| Repeat a few times
 -9-9-9-99-5-5-5-55---------|
 -7-7-7-77-3-3-3-33---------|

You can also play that part with regular chords Em, Am, C, B7, and G. 
[ Tab from: http://www.guitartabs.cc/tabs/l/local_h/manifest_destiny_pt_tab_ver_2.html ]
then at 1:02 start playing this under then chords. Keep playing it until 
Scott stops singing.

e|-------------------------|
b|-------------------------|
g|-------------------------|
d|-------------------------|
a|-------------------------|
E|-7-5-3--0-3-5---Repeat---|

When Scott stops singing, play this.....

e|----------------------------------------------------------------------
b|----------------------------------------------------------------------
g|----------------------------------------------------------------------
d|----------------------------------------------------------------------
a|---------------------------------------------------------------10-9-7-
E|-7-5-3--0-3-5-7-8-7--5-7-8--10-8-7--5-7-8--12-11-11--10-11-11---------

e|----------------------------------------------------------------------
b|----------------------------------------------------------------------
g|----------------------------------------------------------------------
d|----------------------------------------------------------------------
a|-6-7-9--10-9-7--6-7-9-10-10-9-10-10\\\12-12-10-12-12\\\14-12-14-12-14-
E|----------------------------------------------------------------------

e|---------------|
b|---------------|
g|---------------|
d|---------------|
a|-12-14-12------|
E|---------------|

then...Remember the solo thingy from the beginning? Play that whole thing 
twice but at the last bar it changes to this....

e|---------------------------------------------------------------------|
b|-------------15-15-17-15-12--17-15-17-15-17-15-17-15-17--etc.....----|
g|-------14-16---------------------------------------------------------|
d|----14---------------------------------------------------------------|
a|-12------------------------------------------------------------------|
E|---------------------------------------------------------------------|

While you are playing the 15-17-15-17 bit from above, there is another 
guitar playing this at the same time

d|-14b-14b-14b-14b-14b----and so on......................

Remember to bend the string after you hit it.


Comments