Local H - Lucky Time Chords & Tabs

 

Lucky Time Chords & Tabs

Local H Chords & Tabs

Version: 1 Type: Tab 0 ratings
1 star 2 stars 3 stars 4 stars 5 stars
comments

Lucky Time Tab

Lucky Time
Local H - Pack Up the Cats


eb--------------------------------------------------------
Bb-------------10--------------------------10-------------
Gb---------11------11-----11------------10----10----10----
Db------12------------12-------------12----------12-------
Ab---12---------------------------12----------------------
Eb---10---------------------------10----------------------

[ Tab from: http://www.guitartabs.cc/tabs/l/local_h/lucky_time_tab.html ]
---------------------------------------
---------5------------------5----------                                
-------6---6---6----------6---6--------                                
-----7-------7----------7-------7------                              
---7------------------7----------------                            
---5------------------5----------------



eb---5---2---1---3---
Bb---5---2---1---3---
Gb---6---3---2---4---
Db---7---4---3---5---                                     
Ab---7---4---3---5---                               
Eb---5---2---1---3---

"...such a lucky time...."

solo

eb-----5->8-10-9---12-10-7--8-10-9---12-10-9---8--7---5---                                    

Comments