Local H - High-fiving Mf Chords & Tabs

 

High-fiving Mf Chords & Tabs

Local H Chords & Tabs

Version: 2 Type: Bass Tab 0 ratings
1 star 2 stars 3 stars 4 stars 5 stars
comments

High-fiving Mf Bass Tab

There really is no "bass" part to the song. If you would like to make a
bass version of the song, here would lie the tabs . . .

In the beginning, there would be no bass. Just hold the guitar close to
the amp and let that sucker ring while the drums start you out (if you 
do not have a drummer handy . . . just give your bass a good strum before
placing it near the amp). Do this for about 20 seconds and then proceed
with a full-fret slide on D. (/)

Now the actual song . . .

G|---------------------------------------------------------------------
D|---------------------------------------------------------------------
A|---------------------------------------------------------------------
D|--5-5---3-3---0-0---3-3---5-5---3--5--0---3--5---3-3--0--3--5-5--3-2-

Repeat the riff above while singing to yourself (as not to annoy any persons
that may/may not be around you) . . .

"You high-fiving mother fucker."
"You high-fiving mother fucker."
"You high-fiving mother fucker."
"You high-fiving mother fucker."

and then play this . . .

G|--------------------------------------------
D|--------------------------------------------
A|--3---5-5---3-3---0-0---3-3---5-5---3-3---0-
D|--------------------------------------------

while singing (to yourself mind you) . . .

"Your just a walking billboard for all the latest brands."
"You got no taste of music and you really love our band."
"Your hair cut isn't choice, its been the same since '83." 
[ Tab from: http://www.guitartabs.cc/tabs/l/local_h/high_fiving_mf_btab_ver_2.html ]
G|---------------------------------------
D|---------------------------------------
A|--3---5-5---3-3---0-0---3---5--5-5-5-5-
D|---------------------------------------

"Your party days are over and so's your stonewashed jeans."

G|------------------------------------------------
D|------------------------------------------------
A|--5----------5-5-5-5-5-5-5-5-5-5-5-5-5-5-5------
D|------0-0---------------------------------------

"You crass fat ass . . ."

(Bla-Bla-Bla . . . I am only going to fill the words necessary for my
explanation of the song . . . You should know the words if you are
playing the song. Right? Okay . . .)

G|--------------------
D|--------------------
A|--5-5-5-5-5---------
D|--------------0-0-0-

after ^ a bridge ^ . . .

G|----------------------------------------------------------------------
D|----------------------------------------------------------------------
A|----------------------------------------------------------------------
D|--0---3-3-3-3-3-3-3-3-3-3-3-3-3-3-3-3---0-0-0-0-0-0-0-0-0-0-0-0-0-0-0-

"You want me . . ."
"You can't pay."

keep playing that until . . . "YOU WANT ME." Then it's . . .

G|---------------------------------------------------------------------
D|---------------------------------------------------------------------
A|---------------------------------------------------------------------
D|--5-5---3-3---0-0---3-3---5-5---3--5--0---3--5---3-3--0--3--5-5--3-2-

again.

Alrighty then . . . I have given you the main riffs. Now, it is up to
you and your creative self to take them, add timing, your vocals,
whatever . . . and create: "YOUR all bass version."

Have fun. Best of luck to you all.
Comments