Local H - Feed Chords & Tabs

 

Feed Chords & Tabs

Local H Chords & Tabs

Version: 1 Type: Tab 0 ratings
1 star 2 stars 3 stars 4 stars 5 stars
comments

Feed Tab

   
Drop-D Tuning

b = Bend
/ = slide

Verse- played by the bass

e|-------------------
b|-------------------
g|-------------------
d|------------------- Just keep on repeating this until.....
a|-------------------
D|--7-6-0-6--6-6-0---

Chorus- with distortion

"I just want to feel I can trust"
e|--------------------
b|--------------------
g|--------------------
d|--7-6-0-6--6-6-0----
a|--7-6-0-6--6-6-0----
D|--7-6-0-6--6-6-0----


Solo
e|---9-9-9-9-9-9-9-9-9-9-9-9-9-9-9-9-9-9-9-9-9-9-9-9-9-9-9-9-----
b|---9-9-9-9-9-9-9-9-9-9-9-9-9-9-9-9-9-9-9-9-9-9-9-9-9-9-9-9-----
g|---7-7-7-7-7-7-7-7-7-7-7-7-7-7-7-7-7-7-7-7-7-7-7-7-7-7-7-7-----
d|---------------------------------------------------------------
a|---------------------------------------------------------------
D|---------------------------------------------------------------
  The above riff is played more times than is actually shown
[ Tab from: http://www.guitartabs.cc/tabs/l/local_h/feed_tab.html ]
e|--------------------------------
b|--13-13-13-15-13-13------------- Repeat 8x
g|--------------------14-13b-b-b-- and then go to
d|--------------------------------
a|--------------------------------
D|--------------------------------

e|--------------------------------------------------------
b|--------------------------------------------------------
g|------/////13-13-13-----/////13-13-13-----/////13-13-13-
d|--7-X---------------7-X---------------7-X---------------
a|--7-X---------------7-X---------------7-X---------------
D|--7-X---------------7-X---------------7-X---------------

-------------------------------------------------------
------------------------/////13-13-13----/////13-13-13-
-----/////13-13-13-------------------------------------
-7-X---------------7-X---------------7-X---------------
-7-X---------------7-X---------------7-X---------------
-7-X---------------7-X---------------7-X---------------

----------------------------------------------
------/////14--15-15///17-17///19-19////////--
----------------------------------------------
--7-X-----------------------------------------
--7-X-----------------------------------------
--7-X-----------------------------------------

Play the main riff for the rest of the song

Comments