Local H - California Songs Chords & Tabs

 

California Songs Chords & Tabs

Local H Chords & Tabs

Version: 1 Type: Bass Tab 0 ratings
1 star 2 stars 3 stars 4 stars 5 stars
comments

California Songs Bass Tab

California Songs by Local H
Tabbed by Soat
Drop D Tuning

Verse
----------------------------------|
----------------------------------|
---------2-2-1-1-2-2-1-1----------|
-1-1-4-4-----------------4-4-3-3--|

Chorus
-----------------------------------------|
-----------------------------------------|
---------2-1-1-1-2-1-1-1-----------------|
-1-4-4-4-----------------4-4-4-4-3-3-3-3-|
[ Tab from: http://www.guitartabs.cc/tabs/l/local_h/california_songs_btab.html ]
Pre-Bridge/ Post-Bridge
---------------------------------|
---------------------------------|
-6-6-6-6-6-6-6-6-6-6-6-6-6-6-6-6-|
---------------------------------|

Bridge
------------------------------------------------|
------------------------------------------------|
--------------2-2-2-2-----------4-4-4-4-2-2-2-2-|
--1-4-4-4-4-1---------1-4-4-4-4-----------------|

Outro
---------------------------------|
---------------------------------|
-----------------2-2-2-2-1-1-1-1-|
-1-1-1-1-4-4-4-4-----------------|

Should be 100%, any questions or comments email me at orgivemedeath12@yahoo.com.
Comments