Local H - Back In The Day Chords & Tabs

 

Back In The Day Chords & Tabs

Local H Chords & Tabs

Version: 1 Type: Tab 0 ratings
1 star 2 stars 3 stars 4 stars 5 stars
comments

Back In The Day Tab

   
Slide= /
Scratch= X
Harmonics=H
~ = Let Ring
Intro
e|--------------------------------------------|
b|--------------------------------------------|
g|--------------------------------------------| x 1
a|---------22-----000-33-222-----020-000------|
E|-000-333----111------------333--------111---|


Then play intro on distortion 3 times
[ Tab from: http://www.guitartabs.cc/tabs/l/local_h/back_in_the_day_tab.html ]
Chorus
e|--------------------------------------------|
b|--------------------------------------------|
g|---------44-----222-55-444-----040-222------| x 2
d|-222-555-44-333-222-55-444-555-040-222-333--|
a|-222-555-22-333-000-33-222-555-020-000-333--|
E|-000-333----111------------333--------111---|


Verse
e|-------------|
b|-------------|
g|---------4---| x 8
d|-2-X-5-X-4---|
a|-2-X-5-X-2---|
E|-0-X-3-X-----|

Second Guitar-Play at same time as above.
Play above each fret to get Harmonics.  
I know there is only one guitarist. But there are two guitars playing
at the same time here.

   H H H H H H H H 
e|-2-2-2-4-4-4-3-3----|
b|-2-2-2-4-4-4-3-3----|
g|-2-2-2-4-4-4-3-3----| 
d|-2-2-2-4-4-4-3-3----|
a|-2-2-2-4-4-4-3-3----|
E|-2-2-2-4-4-4-3-3----|


Verse Variation
e|---------------------|
b|---------------------|    
Comments