Lo-tel - A Pop Song Saved My Life Acoustic Chords & Tabs

 

A Pop Song Saved My Life Acoustic Chords & Tabs

Lo-tel Chords & Tabs

Version: 1 Type: Tab 0 ratings
1 star 2 stars 3 stars 4 stars 5 stars
comments

A Pop Song Saved My Life Acoustic Tab

Band: Lo-tel
Song: A Pop Saved My LIfe
Performed live @ the chapel


this song is done on acoustics. And it sounds pretty right
needs a bit of work. and i only have the lead guitar so far.
but i'm working on the rhythm.
This is the keyboard in the album version. that'll be up soon.

intro:
e----------------------------------------------------------------------|
b---12--12--12--12--15--15--15--15--12--12--12--12--11--11--11--11-----|
g-----12--12--12--12--12--12--12--12--12--12--12--12--12--12--12--12---| x2
d----------------------------------------------------------------------| (then verse prt1)
a----------------------------------------------------------------------|
E----------------------------------------------------------------------|

[ Tab from: http://www.guitartabs.cc/tabs/l/lo_tel/a_pop_song_saved_my_life_acoustic_tab.html ]
verse(part 1):
e---------------------------------------------------------------------|
b---------------------------------------------------------------------|
g---------------------------------------------------------------------|
d-7-7-7-7-7-7-7-5-5-5-5-5-5-5-5-7-7-7-7-7-7-7-5-5-5-5-4-4-4-4---------|(play twice then
a---------------------------------------------------------------------|verse prt2)
E---------------------------------------------------------------------|

verse(pert 2):
e--------------------------------------------------------------------|
b--------------------------12----------------------------------------|
g--9-12-11----11-12----12----12----9-12-9--9-11-9--------------------|x2
d-9-9-----12-9-------12--12-------9-------9--------------------------|(rhythm does the slide,
a--------------------------------------------------------------------|thats when this stops and
E--------------------------------------------------------------------|goes straight to the chorus)

Chorus:
e-7/5/33/2-2-2-2-2----7/5/22/3-3-3-3-3--------------------------------|
b-7/5/33/3-3-3-3-3----7/5/22/3-3-3-3-3--------------------------------|
g-9/7/55/4-4-4-4-4----9/7/44/5-5-5-5-5--------------------------------|x2
d-9/7/55/4-4-4-4-4----9/7/44/5-5-5-5-5--------------------------------|
a-7/5/33/2-2-2-2-2----7/5/22/3-3-3-3-3--------------------------------|
E-7/5/33/2-2-2-2-2----7/5/22/3-3-3-3-3--------------------------------|

back to top after that

the outro is the intro
it just keeps repeating.


anyone with replys
write to
gregg_the_grimreaper@hotmail.com

later people
Comments