Lo Tel - 7 Days Chords & Tabs

 

7 Days Chords & Tabs

Lo Tel Chords & Tabs

Version: 1 Type: Tab 0 ratings
1 star 2 stars 3 stars 4 stars 5 stars
comments

7 Days Tab

Lo-tel - 7 Days
This is a great song, track 10 from Lo-tel's new cd The Lost Thing, a
really impressive album from a good aussie band.
Like a lot of Lo-tel songs, you will need to detune half a tone to 
play in tune with the album.
Tabbed by Matt Rosengarten
comments, corrections, suggestions? email rosie8411@hotmail.com


	Intro, Verses - repeat
Eb ------------------------------------------------------------------
Bb ------------------------------------------------------------------
Gb -------------1-2-1-----1 -------1-----2--1-------1------------
Db ----------4----------4-------------------------------------------
Ab ------2----------------------4-----4----------4-----------------
Eb --0---------------------------------------------------------------

	for a guy, to change his mind...
Eb ------------------------------------------------------------------
Bb ------------------------------------------------------------------
Gb -----------------2-----------------------------------------------
Db -------------6------6--------------------------------------------
Ab --------4--------------------------------------------------------
Eb ----2-------------------0----------------------------------------

	seven days...
Eb ---------------------4------------
Bb ---------------------5------------
Gb -----6-------2-------6------------
Db -----7-------4-------6------------
Ab -----7-------4-------4------------
Eb -----5-------2-------x------------
[ Tab from: http://www.guitartabs.cc/tabs/l/lo_tel/7_days_tab.html ]
	simple melody...
Eb ----------------------------------------
Bb ----------------------------------------
Gb -----9----------------------------------
Db -----9---------------------------------
Ab -----7---------------------------------
Eb -----x---------------------------------

	time is rarely...
Eb -------------4------------------------
Bb -------------5------------------------
Gb ----9--------6---------6--------8------
Db ----9--------6---------7--------9-----
Ab ----7--------4---------7--------9------
Eb ----x--------x---------5--------7---------

	here for you...
Eb -------------4------------------0----------4----------2------
Bb -------------5------------------0----------5----------2-----
Gb ----9--------6---------6--------1----------6----------4-----
Db ----9--------6---------7--------2----------6----------4-------
Ab ----7--------4---------7--------2----------4----------2-----
Eb ----x--------x---------5--------0----------x----------x-----

	solo
Eb --------------------------------------------------------
Bb ----12---14s9-----7h9p7-----------------------------
Gb ----------------------------------9--8--9-------------
Db --------------------------------------------------------
Ab ------------------------------------------------------
Eb ---------------------------------------------------------

Eb --------------------------------------------------------
Bb ----12s14s9-----7h9p7-----------------------------
Gb ----------------------------------9--9--9--8--9-------------
Db --------------------------------------------------------
Ab ------------------------------------------------------
Eb ---------------------------------------------------------


It sounds right to me, but as with most lo-tel songs it sounds like 
there's at least one other guitar part being played, this should 
sound good though. 
Comments