Lmnt - Hey Juliet Chords & Tabs

 

Hey Juliet Chords & Tabs

Lmnt Chords & Tabs

Version: 1 Type: Tab 0 ratings
1 star 2 stars 3 stars 4 stars 5 stars
comments

Hey Juliet Tab

LMNT official website url: http://www.lmntmusic.com/

This is the intro. You can play it throughout the whole song if u wan to,
it does fit. 
[ Tab from: http://www.guitartabs.cc/tabs/l/lmnt/hey_juliet_tab.html ]
------------------------------------------------------------
------------------------------------------------------------
---8----8----------------------8----8-----------------------
---8----8--8----8--6-----------8----8--8----8--6------------
---6----6--8----8--6-----------6----6--8----8--6------------
-----------6----6--4-------------------6----6--4------------


Then follows the solo part. 
------------------------------------------------------------
-15-15---10-14/15\14----14-12-12----------------------------    x2
------------------------------------------------------------
------------------------------------------------------------
------------------------------------------------------------
------------------------------------------------------------

i don't know if it's correct, do correct me if it's wrong,
coz this is only my 2nd ever tab!
Comments