Lloyd Ft Ashanti - Southside Chords & Tabs

 

Southside Chords & Tabs

Lloyd Ft Ashanti Chords & Tabs

Version: 1 Type: Tab 0 ratings
1 star 2 stars 3 stars 4 stars 5 stars
comments

Southside Tab

Here are the first couple of chords along with some corrections to those who were looking for this tab.

Chords Used:

E  8     7     5     3     5
B  10    8     6     3     5
G  9     7     5     4     5
D  10    9     7     5     7
A  8     7     5     5     7
E  x     x     x     3     5



E ||----------8-------------------7-----5--------
B ||----------10------------------8-----6-5(6)5(6) (HAMMER ON FROM 5 TO 6 4X)
G ||----------9-------------------7-----5--------
D ||-----10---10--------------9---9-----7--------
A ||--8-------8-----------7-------7-----7--------
E ||----------------------------------------------


[ Tab from: http://www.guitartabs.cc/tabs/l/lloyd_ft_ashanti/southside_tab.html ]
E ||----------8-----------3-----5------
B ||----------10----------3-----5------
G ||----------9-------4---4-----5------
D ||-----10---10----5-----5-----7------
A ||---8------8-----------5-----7------
E ||----------------------3-----5------


THIS IS WHEN THE GUITAR STARTS TO PLAY THE SOLO:
-PLAY BAR 1 3X, FOLLOWED BY BAR 2, THEN PLAY BAR 3

    BAR 1            BAR 2   BAR 3                 
E ||----------------|-------|-----------------------------------
B ||----------------|-------|--------------------5(6)5----------
G ||-----5-7-5(7)5--|-7(9)7-|-----5-7--5(7)5--------------7--5--
D ||-5-7------------|-------|-5-7-------------5-----------------
A ||----------------|-------|-----------------------------------
E ||----------------|-------|-----------------------------------


ANY QUESTIONS EMAIL ME AT 
rbf_05@yahoo.com 

got it....later
Im pretty much an r&b wiz, so if u got any r&b song u need help with, jus let me know

Comments