Living Syndication - 13 Minutes Chords & Tabs

 

13 Minutes Chords & Tabs

Living Syndication Chords & Tabs

Version: 1 Type: Tab 0 ratings
1 star 2 stars 3 stars 4 stars 5 stars
comments

13 Minutes Tab

13 Minutes by Living Syndication
Tabbed by Daniel Spendlove for 
www.ultimate-guitar.com
This is a very, lyrical based song with a lot of simple but great sounding rythm guitar.
Sorry I dont have the lead guitar parts, although if anyone knows them they can email
them to me at johndoejr@comcast.net or post them as solos. Thanks to those who help me
by sending any errors or send solo parts.

         Acoustic Guitar
e|--------------------------------------------------|
B|--------------------------------------------------|
G|--------------------------------------------------|
D|--------------------------------------------------| x7
A|-9-9-9-9-9/12-12-12-12-12\5-5-5-5-5-5-5-5---------|
E|-7-7-7-7-7/10-10-10-10-10\3-3-3-3-3-3-3-3---------|

e|--------------------------------------------------|
B|--------------------------------------------------|
G|--------------------------------------------------|
D|--------------------------------------------------|
A|-9-9-9-9-9/12-12-12-12-12\5-----------------------|
E|-7-7-7-7-7/10-10-10-10-10\3-----------------------|

e|--------------------------------------------------|
B|--------------------------------------------------|
G|--------------------------------------------------|
D|-7-7-7-7-7-7-7-7-7-7\5-5-5-5-5-5-5-5-5-5----------| x3
A|-5-5-5-5-5-5-5-5-5-5\3-3-3-3-3-3-3-3-3-3----------|
E|--------------------------------------------------|

e|--------------------------------------------------|
B|--------------------------------------------------|
G|--------------------------------------------------|
D|-7-7-7-7-7-7-7-7-7-7\5----------------------------|
A|-5-5-5-5-5-5-5-5-5-5\3----------------------------|
E|--------------------------------------------------|

 Heavily Distorted
e|--------------------------------------------------|
B|--------------------------------------------------|
G|--------------------------------------------------|
D|--------------------------------------------------| 
A|-9-9-9-9-9/12-12-12-12-12\5-5-5-5-5-5-5-5---------|
E|-7-7-7-7-7/10-10-10-10-10\3-3-3-3-3-3-3-3---------|

e|--------------------------------------------------|
B|--------------------------------------------------|
G|--------------------------------------------------|
D|--------------------------------------------------| 
A|-9-9-9-9-9/12-12-12-12-12\5-----------------------|
E|-7-7-7-7-7/10-10-10-10-10\3-----------------------|
[ Tab from: http://www.guitartabs.cc/tabs/l/living_syndication/13_minutes_tab.html ]
 Acoustic
e|--------------------------------------------------|
B|--------------------------------------------------|
G|--------------------------------------------------|
D|--------------------------------------------------| x2
A|-9-9-9-9-9/12-12-12-12-12\5-5-5-5-5-5-5-5---------|
E|-7-7-7-7-7/10-10-10-10-10\3-3-3-3-3-3-3-3---------|

 Heavily Distorted
e|--------------------------------------------------|
B|--------------------------------------------------|
G|--------------------------------------------------|
D|--------------------------------------------------| 
A|-9-9-9-9-9/12-12-12-12-12\5-5-5-5-5-5-5-5---------|
E|-7-7-7-7-7/10-10-10-10-10\3-3-3-3-3-3-3-3---------|

e|--------------------------------------------------|
B|--------------------------------------------------|
G|--------------------------------------------------|
D|--------------------------------------------------| 
A|-9-9-9-9-9/12-12-12-12-12\5-----------------------|
E|-7-7-7-7-7/10-10-10-10-10\3-----------------------|

e|--------------------------------------------------|
B|--------------------------------------------------|
G|--------------------------------------------------|
D|-7-7-7-7-7-7-7-7-7-7\5-5-5-5-5-5-5-5-5-5----------| x3
A|-5-5-5-5-5-5-5-5-5-5\3-3-3-3-3-3-3-3-3-3----------|
E|--------------------------------------------------|

e|--------------------------------------------------|
B|--------------------------------------------------|
G|--------------------------------------------------|
D|-7-7-7-7-7-7-7-7-7-7\5----------------------------| 
A|-5-5-5-5-5-5-5-5-5-5\3----------------------------|
E|--------------------------------------------------|

e|--------------------------------------------------|
B|--------------------------------------------------|
G|--------------------------------------------------|
D|-7-7-7-7-7-7-7-7-7-7\5-5-5-5-5-5-5-5-5-5----------| x3
A|-5-5-5-5-5-5-5-5-5-5\3-3-3-3-3-3-3-3-3-3----------|
E|--------------------------------------------------|

e|--------------------------------------------------|
B|--------------------------------------------------|
G|--------------------------------------------------|
D|-7-7-7-7-7-7-7-7-7-7\5----------------------------| 
A|-5-5-5-5-5-5-5-5-5-5\3----------------------------|
E|--------------------------------------------------|

e|--------------------------------------------------|
B|--------------------------------------------------|
G|--------------------------------------------------|
D|--------------------------------------------------| x3
A|-9-9-9-9-9/12-12-12-12-12\5-5-5-5-5-5-5-5---------|
E|-7-7-7-7-7/10-10-10-10-10\3-3-3-3-3-3-3-3---------|

e|--------------------------------------------------|
B|--------------------------------------------------|
G|--------------------------------------------------|
D|--------------------------------------------------| 
A|-9-9-9-9-9/12-12-12-12-12\5-----------------------|
E|-7-7-7-7-7/10-10-10-10-10\3-----------------------|
Comments