Living Sacrifice - Spirit Fall Chords & Tabs

 

Spirit Fall Chords & Tabs

Living Sacrifice Chords & Tabs

Version: 1 Type: Tab 0 ratings
1 star 2 stars 3 stars 4 stars 5 stars
comments

Spirit Fall Tab

Tabbed by:THE SANDMAN
Email:ryan5@iamwasted.com

Intro
  Eb |----------------------------------------------------|
  Bb |----------------------------------------------------|
  Gb |----------------------------------------------------|
  Db |----------------------------------------------------|
  Ab |7-7-7-6-6-6-(6)-------------------------------------|x2
  Db |7-7-7-6-6-6-6-6-7-7-7-6-6-6-6-6---------------------|


  Eb|----------------------------------------------------|
  Bb|----------------------------------------------------|
  Gb|----------------------------------------------------|
  Db|----------------------------------------------------|
  Ab|7-7-7-6-6-6-6-6-7-7-7-6-6-6-6-6---------------------|4x
  Db|7-7-7-6-6-6-6-6-7-7-7-6-6-6-6-6---------------------|


 Eb|----------------------------------------------------|
 Bb|----------------------------------------------------|
 Gb|7-------7-------7-7-----7---7-----------------------|
 Db|6-------6-------6-6-----6---6-----------------------|
 Ab|5-------5-------5-5-----5---5-----------------------|
 Db|----------------------------------------------------|


 Eb|----------------------------------------------------|
 Bb|----------------------------------------------------|
 Gb|----------------------------------------------------|
 Db|----------------------------------------------------|
 Ab|5-----4---------5-----4-----------------------------|2x
 Db|7---0-6---0-0-0-7---0-6---0-0-0---------------------|

 Eb|----------------------------------------------------|
 Bb|----------------------------------------------------|
 Gb|----------------------------------------------------|
 Db|----------------------------------------------------|
 Ab|5---4-----------------------------------------------|4x
 Db|7---6--1p0------------------------------------------|



 Eb|----------------------------------------------------|
 Bb|----------------------------------------------------|
 Gb|----------------------------------------------------|
 Db|----------------------------------------------------|
 Ab|--------------------------6-7-----------------------|4x
 Db|11110--11110--110--11110--6-7-----------------------|

 Eb|----------------------------------------------------|
 Bb|----------------------------------------------------|
 Gb|----------------------------------------------------|
 Db|----------------------------------------------------|
 Ab|5---4--5---4-4-6------------------------------------|4x
 Db|7-7-6--7-7-6-4-6------------------------------------|

 Eb|----------------------------------------------------|
 Bb|----------------------------------------------------|
 Gb|----------------------------------------------------|
 Db|----------------------------------------------------|
 Ab|------------3-6-------------------------------------|x2
 Db|0---7-4-6-------------------------------------------|
     

 Eb|----------------------------------------------------|
 Bb|----------------------------------------------------|
 Gb|----------------------------------------------------|
 Db|----7-4-6-------------------------------------------|
 Ab|5-----------6---------------------------------------|2x
 Db|----------------------------------------------------|

[ Tab from: http://www.guitartabs.cc/tabs/l/living_sacrifice/spirit_fall_tab.html ]
 Eb|---------------------------------------------------|
 Bb|---------------------------------------------------|
 Gb|---------------------------------------------------|
 Db|0----4--6---\1--0---0-------------------------------|
 Ab|0----4--6---\1--0----------------------------------|
 Db|0----4--6---\1--0----------------------------------|

 Eb|----------------------------------------------------|
 Bb|----------------------------------------------------|
 Gb|----------------------------------------------------|
 Db|4--6--\1--------------------------------------------|
 Ab|4--6--\1--0-0-0-0-0-0-0-0---------------------------|
 Db|4--6--\1--0-0-0-0-0-0-0-0---------------------------|

 Eb|----------------------------------------------------|
 Bb|----------------------------------------------------|
 Gb|----------------------------------------------------|
 Db|4--6--\1--0-----------------------------------------|
 Ab|4--6--\1--0-----------------------------------------|
 Db|4--6--\1--0-----------------------------------------|

solo
 Eb|-10--10-10-10-------------------------------------|
 Bb|----------------------------------------------------|
 Gb|----------------13-13--13-13-13-11-11-11-13-13-13-13|
 Db|----------------------------------------------------|
 Ab|----------------------------------------------------|
 Db|----------------------------------------------------|

 Eb|10-10-10----------------14-14-14-14-10-10-10-10-----|
 Bb|----------------------------------------------------|
 Gb|---------13-13-13-13-11-----------------------------|
 Db|----------------------------------------------------|
 Ab|----------------------------------------------------|
 Db|----------------------------------------------------|

 
  Eb |/17-16--16-16-16-14----14-------14----------------|
  Bb--------------------15----15--15---15\9-7-----------|
  Gb----------------------------------------------------|
  Db----------------------------------------------------|
  Ab----------------------------------------------------|
  Db---------------------------------------------------|

  
  Eb----------------------------------------------------|
  Bb----------------------------------------------------|
  Gb----------------------------------------------------|
  Db----0-----0-----------------------------------------|
  Ab--0-----0-----0---0-3---0-3---0---------------------|
  Db-0----0-----0---6-----6-----6-----------------------|

 |----------------------------------------------------|
   |----------------------------------------------------|
   |----------------------------------------------------|
   |----7-----7---------7-----7-------------------------|
   |--5-----5-----5---6-----6-----6---------------------|
   |0-----0-----0---6-----6-----6-----------------------|


   |----------------------------------------------------|
   |--------7---7/9-------------------------------------|
   |7---9-----------------------------------------------|
   |----------------------------------------------------|
   |----------------------------------------------------|x8
   |----------------------------------------------------|

   --------------------------------------------------|
   |------7--7-9----------------------------------------|
   |7--9--x--x-x--9--6----------------------------------|
   |x--x--4--4/6--x--x----------------------------------|
   |5--7----------6--3----------------------------------|4x
   |----------------------------------------------------|

   |----------------------------------------------------|
   |----------------------------------------------------|
   |----------------------------------------------------|
   |----------------------------------------------------|
   |----------------------------------------------------|8x
   |000---000---000-------------------------------------|
Comments