Living Sacrifice - Reject Chords & Tabs

 

Reject Chords & Tabs

Living Sacrifice Chords & Tabs

Version: 1 Type: Tab 0 ratings
1 star 2 stars 3 stars 4 stars 5 stars
comments

Reject Tab

Band: Living Sacrifice		

Song: Reject

Drop D Tuning


Intro
-------------------------|
-------------------------|
-------------------------|
-0-0-0-00-0-0-0-00–--|
-0-0-0-00-0-0-0-00–--|
-0-0-0-00-0-0-0-00–--|



----------------------------|
----------------------------|
----------------------------|
-0-0-0-00-0-0-0-00-1----|	2x
-0-0-0-00-0-0-0-00-1----|
-0-0-0-00-0-0-0-00-1----|


--------------------------------------------------|
--------------------------------------------------|
--------------------------------------------------|
-0-0-0-00-0-0-0-00-0-0-0-00-0-0-0-0-0-----|
-0-0-0-00-0-0-0-00-0-0-0-00-0-0-0-0-0-----|
-0-0-0-00-0-0-0-00-0-0-0-00-0-0-0-0-0-----|


----------------------------------------------------|
----------------------------------------------------|
----------------------------------------------------|
-0----------let it ring------------------------------|
-0--------------------------------------------------|
-0--------------------------------------------------|

'' I set myself up, with no one to blame but my, 
self pity is useless.........."

[ Tab from: http://www.guitartabs.cc/tabs/l/living_sacrifice/reject_tab.html ]
----------------------------------------|
----------------------------------------|
----------------------------------------|
-000-00-000-00-000-00-000-00–---|
-000-00-000-00-000-00-000-00–---|
-000-00-000-00-000-00-000-00–---|

" Sickness!, Sickness!"

----------------------------|
----------------------------|
----------------------------|
-0-0-0-00-0-0-0-00-1----|	2x
-0-0-0-00-0-0-0-00-1----|
-0-0-0-00-0-0-0-00-1----|


-------------------------------------------------|
-------------------------------------------------|
-------------------------------------------------|
-0-0-0-00-0-0-0-00-0-0-0-00-0-0-0-0-0----|
-0-0-0-00-0-0-0-00-0-0-0-00-0-0-0-0-0----|
-0-0-0-00-0-0-0-00-0-0-0-00-0-0-0-0-0----|


-----------------|
-----------------|
-----------------|	7x	
-0-5-0-5-0-3---|
-0-5-0-5-0-3---|
-0-5-0-5-0-3---|


Guitar 2:

-----------------|
-----------------|
-----------------|	7x		
-0-5-0-5-0-3---|
-----------------|
-----------------|





-------------------------|
-------------------------|
-------------------------|
-0--000–0-000–000–-|	8x
-0--000–0-000–000–-|
-0--000–0-000–000–-|




-------------------|
-------------------|
-7--6--7--6------|
---------------7--|
------------------|
------------------|


Comments