Living End - Sleep On It Chords & Tabs

 

Sleep On It Chords & Tabs

Living End Chords & Tabs

Version: 1 Type: Tab 0 ratings
1 star 2 stars 3 stars 4 stars 5 stars
comments

Sleep On It Tab

   
 Sleep On It,  -THE LIVING END-   Tabbed By Michael Fryar - manumick20@yahoo.com

s=slide
p=pull-off
h=hammer-on
sw=sweep
*= muted power chords
: = pause in solo
/=slide, entire neck.
Intro: Strum strings individually over the chords,
 Am - G - F - E - Am - G - F - E 
 

Verse: Am - G - F - E ,repeat as needed 
       F# - D - F# - D - E - D - C - D

Chorus: A - F - G - A
        A - F - E
        F - G - G# - A - F - E - A

Verse
Chorus
Solo :
[ Tab from: http://www.guitartabs.cc/tabs/l/living_end/sleep_on_it_tab.html ]
e-12-------:------12-10----------------:-5p3p0---3p0------------------------------------:
b----13----:-s-13-------13-12-13p12p10-:-------3-----3---5------------------------------:
g-------14-:---------------------------:---------------5---7p5---7p5-----s5-------------:
d----------:---------------------------:-----------------------7-----7p5----7-----------:
a----------:---------------------------:--------------------------------------7-5-7-5-5-:
e----------:---------------------------:------------------------------------------------:

e-----5-------7------7-11p7--------:---------sw12-15s--------/-
b----6-6-----8-8----8-------8------:-----sw13----------------/-
g-s-5-----s-7----s-8----------8-s9-:-sw14--------------------/-
d----------------------------------:-------------------2-3-2-/-
a----------------------------------:-------------------2-3-2-/-
e----------------------------------:-------------------0-1-0-/-

Bridge: F dim_7th

Chorus: *key change*
A# - F# - G# - A#
A# - F# - F
F# - G# - A - A#

Outro:
F#- F - F#-F - F#-F - A#

Tabbed By Michael Fryar   manumick20@yahoo.com
Comments