Living End - Second Solution Chords & Tabs

 

Second Solution Chords & Tabs

Living End Chords & Tabs

Version: 1 Type: Bass Tab 0 ratings
1 star 2 stars 3 stars 4 stars 5 stars
comments

Second Solution Bass Tab

THE LIVING END - "Second Solution" - Bass Tab

Original Tab By: Johari Taylor
Common Time(4/4)
Standard Tuning(EADG)
Updated Intro and verse- omsomniak  Email- omsomniak_1@hotmail.com
INTRO:
                        (x7)             . .           . . (x4)
|---------|--------.-.------|---------|------.-.-|-.-.--------|
|---------|*-------4-4-----*|-.-.-.-.-|*---------|-----------*|
|-r-r-r-0h|*-2---2-------0h*|-2-2-2-2-|*-2-2-----|----3-3-2-2*|
|---------|-----------------|---------|------2-2-|3-3---------|
  & 4 & a    1 2 & 3 4 & a    1 2 3 4    1 2 3 4   1 2 3 4

1ST VERSE:
                 (x3)
|----------|----------|---------|---------|-.-.-.-.-|-.-.-.-.-|
|*---------|-----.---*|---------|---------|---------|---------|
|*-2-2-2-2-|-2-2-3-.-*|-2-------|-----2-2-|---------|---------|
|----------|-------2--|---5-3-2-|-3-5-----|-3-3-3-3-|---------|
   1 2 3 4   1 2 3 4    1 2 3 4   1 2 3 4   1 2 3 4   1 2 3 4

|-.-.-----|---------|
|-4-2-.-.-|-.-------|
|-----5-3-|-2-.-.-.-|
|---------|---5-3-2-|
  1 2 3 4   1 2 3 4

1ST CHORUS:                  
|---------|---------|-----4---|---------|---------|---------|
|-----4---|-----4---|-2-5---5-|-2-4-2---|-----4---|-----2-3-|
|-2-5---5-|-2-5---5-|---------|-------5-|-2-5---5-|-2-5-----|
|---------|---------|---------|---------|---------|---------|
  1 2 3 4   1 2 3 4   1 2 3 4   1 2 3 4   1 2 3 4   1 2 3 4
                                     
|-.-.-----|---------|---------|-r-r-4-2-|---------|---------|
|-4-4-.-.-|-4-5-4-2-|----4----|---------|-5-5-5-5-|-5-5-5-5-|
|-----4-4-|---------|-2-5---5-|---------|---------|---------|
|---------|---------|---------|---------|---------|---------|
  1 2 3 4   1 2 3 4   1 2 3 4   1 2 3 4   1 2 3 4   1 2 3 4
         
|---------|---------|
|-4-4-4-2-|-4-r-----|
|---------|----/5-4-|
|---------|---------|
  1 2 3 4   1 2 3 4  

2ND CHORUS:
|---------|---------|-----4---|---------|---------|---------|
|-----4---|-----4---|-2-5---5-|-2-4-2---|-----4---|-----2-3-|
|-2-5---5-|-2-5---5-|---------|-------5-|-2-5---5-|-2-5-----|
|---------|---------|---------|---------|---------|---------|
  1 2 3 4   1 2 3 4   1 2 3 4   1 2 3 4   1 2 3 4   1 2 3 4
                                     
|-.-.-----|---------|---------|-r-r-4-2-|---------|---------|
|-4-4-.-.-|-4-5-4-2-|-----4---|---------|-5-5-5-5-|-5-5-5-5-|
|-----4-4-|---------|-2-5---5-|---------|---------|---------|
|---------|---------|---------|---------|---------|---------|
  1 2 3 4   1 2 3 4   1 2 3 4   1 2 3 4   1 2 3 4   1 2 3 4
                        .   .     .   .
|---------|---------|---4---4-|---4---4-|---------|---------|
|-4-4-4-2-|-r-r-r-r-|-.---.---|-.---.---|---------|-----.---|
|---------|---------|-2---2---|-2---2---|-2-------|-----2-r-|
|---------|---------|---------|---------|---5-3-2-|-3-5-----|
  1 2 3 4   1 2 3 4   1 2 3 4   1 2 3 4   1 2 3 4   1 2 3 4
[ Tab from: http://www.guitartabs.cc/tabs/l/living_end/second_solution_btab.html ]
SOLO:
|---------|---------|-----4---|---------|---------|---------|
|---------|-----2-3-|-2-5---5-|-2-4-2---|-----4---|-----2-3-|
|-2-5-2-5-|-2-5-----|---------|-------5-|-2-5---5-|-2-5-----|
|---------|---------|---------|---------|---------|---------|
  1 2 3 4   1 2 3 4   1 2 3 4   1 2 3 4   1 2 3 4   1 2 3 4

|---------|---------|---------|-----4-2-|---------|---------|
|-4-4-----|-4-5-4-2-|-----4---|---------|-5-5-5-5-|-5-5-5-5-|
|-----4-4-|---------|-2-5---5-|-r-r-----|---------|---------|
|---------|---------|---------|---------|---------|---------|
  1 2 3 4   1 2 3 4   1 2 3 4   1 2 3 4   1 2 3 4   1 2 3 4
                                                  . .
|-------------|---------|-------------|---------|-4-4-----|
|---------4---|-4-r-r-r-|---------4---|-4-r-r-r-|-----r-r-|
|-----------4-|---------|-----------4-|---------|---------|
|-2-2-2-2-----|---------|-2-2-2-2-----|---------|---------|
  1 & 2 & 3 4   1 2 3 4   1 & 2 & 3 4   1 2 3 4   1 2 3 4  
                                . .           . .
|---------|---------|---------|-4-4-.-.-|-.-.-5-5-|
|-r-r-r-r-|-r-r-r-r-|-r-r-r-r-|-----4-4-|-5-5-----|
|---------|---------|---------|---------|---------|
|---------|---------|---------|---------|---------|
  1 2 3 4   1 2 3 4   1 2 3 4   1 2 3 4   1 2 3 4 
  . .           . .
|-4-4-.-.-|-.-.-5-5-|
|-----4-4-|-5-5-----|
|---------|---------|
|---------|---------|
  1 2 3 4   1 2 3 4 

LAST CHORUS:
|---------|---------|-----4---|---------|---------|---------|
|-----4---|-----4---|-2-5---5-|-2-4-2---|-----4---|-----2-3-|
|-2-5---5-|-2-5---5-|---------|-------5-|-2-5---5-|-2-5-----|
|---------|---------|---------|---------|---------|---------|
  1 2 3 4   1 2 3 4   1 2 3 4   1 2 3 4   1 2 3 4   1 2 3 4
                                     
|-.-.-----|---------|---------|-r-r-4-2-|---------|---------|
|-4-4-.-.-|-4-5-4-2-|-----4---|---------|-5-5-5-5-|-5-5-5-5-|
|-----4-4-|---------|-2-5---5-|---------|---------|---------|
|---------|---------|---------|---------|---------|---------|
  1 2 3 4   1 2 3 4   1 2 3 4   1 2 3 4   1 2 3 4   1 2 3 4
                                   
|---------|---------|---------|---------|---------|---------|
|-4-4-4-2-|-4-------|---------|---------|---------|---5---4-|
|---------|---------|-2-------|---------|-2-------|---------|
|---------|---------|---------|-3---2---|---------|-3---2---|
  1 2 3 4   1 2 3 4   1 2 3 4   1 2 3 4   1 2 3 4   1 2 3 4

                                                          (x4)
|---------|---------|---------|---------|----------|----------|
|---------|-5---4---|---------|---5---4-|*---------|---------*|
|-2---3-5-|---------|-2-------|---------|*-2-2-2-2-|---------*|
|---------|---------|---------|-3---2---|----------|-3-3-2-2--|
  1 2 3 4   1 2 3 4   1 2 3 4   1 2 3 4    1 2 3 4   1 2 3 4
         
                  (x3)
|----------|----------|---------|---------|
|*-.-.-.-.-|---------*|---------|---------|
|*-2-2-5-5-|-.-.-.-.-*|-2-------|-----2-r-|
|----------|-3-3-2-2--|---5-3-2-|-3-5-----|
   1 2 3 4   1 2 3 4    1 2 3 4   1 2 3 4

Comments